Oops, an error
Loading. Please wait.

Good Times tab

version 3
version 3

Whole song

Interactive

19 views 1 this week
no commentswrite comment
1 2 3 4 5
3 more votes to show rating
add to favorites
×
Save as Personal and add changes to this tab that will be seen only by you. Learn more ›
×
You can save this tab as Personal to edit and correct it or add notes. All changes will be seen only by you. Learn more »
launch autoscroll
font size
0
reset
how to read this tab
guitar tuner
edit
Autoscroll
slow
fast
+/-
esc
set tempo
stop
Finger Eleven
Good Times
Drop Db (Db,Ab,Db,Gb,Bb,Eb,)
Tempo 134 bpm

[Intro]
    w/ feedback
eb|----(14)----||-------------------------------|
Bb|------------||-------------------------------|
Gb|-----4------||--------------0--0--0--0--0----|
Db|------------||-----------4-------------------|
Ab|------------||--2----------------------------|
Db|------------||-------------------------------|
                                              8x

[Verse 1]
eb|-------------------------------||-------------------------------|
Bb|-------------------------------||-------------------------------|
Gb|-------------------------------||--------------0--0--0--0--0----|
Db|-----------------9---/---11----||-----------4-------------------|
Ab|--11-------------7---/---9-----||--2----------------------------|
Db|--11---------------------------||-------------------------------|
                                 4x                              4x 

eb|-------------------------------||-------------------------------||-------|
Bb|-------------------------------||-------------------------------||-------|
Gb|-------------------------------||--------------0--0--0--0--0----||--4----|
Db|-----------------9---/---11----||-----------4-------------------||--2----|
Ab|--11-------------7---/---9-----||--2----------------------------||--0----|
Db|--11---------------------------||-------------------------------||-------|
                                 4x                              2x 

[Chorus]
eb|-------------------------|--------------------------|--------------------------|--------------------------|
Bb|-------------------------|--------------------------|--------------------------|--------------------------|
Gb|-------------------------|--------------------------|--------------------------|--------------------------|
Db|-------7--7-/-9--9-/-11--|--------7--7-\-5--5-/-14--|--------7--7-/-9--9-/-11--|--14-14-14-14----14----14-|
Ab|-9-----5--5-/-7--7-/-9---|--9-----5--5-\-4--4-/-12--|--9-----5--5-/-7--7-/-9---|--12-12-12-12----12----12-|
Db|-9-----------------------|--9-----------------------|--9-----------------------|--------------------------|


eb|-------------------------|--------------------------|--------------------------|--------------------------|
Bb|-------------------------|--------------------------|--------------------------|--------------------------|
Gb|-------------------------|--------------------------|--------------------------|--------------------------|
Db|-------7--7-/-9--9-/-11--|--------7--7-\-5--5-/-14--|--------7--7-/-9--9-/-11--|-----------------2--------|
Ab|-9-----5--5-/-7--7-/-9---|--9-----5--5-\-4--4-/-12--|--9-----5--5-/-7--7-/-9---|--12-0--------4--0--------|
Db|-9-----------------------|--9-----------------------|--9-----------------------|-----0--------------------|

eb|--------------------------|--------------------------|
Bb|--------------------------|--------------------------|
Gb|--------------------------|--------------------------|
Db|--4-----------------------|--(4)---------------------|
Ab|--2-----------------------|--(2)---------------------|
Db|--------------------------|--------------------------|

[Verse 2]
eb|-------------------------------||-------------------------------||-------------------------------|
Bb|-------------------------------||-------------------------------||-------------------------------|
Gb|-------------------------------||-------------------------------||--------------0--0--0--0--0----|
Db|-----------------9---/---11----||-----------------9---/---11----||-----------4-------------------|
Ab|--11-------------7---/---9-----||--11-------------7---/---9-----||--2----------------------------|
Db|--11---------------------------||--11---------------------------||-------------------------------|
  |                                                                                                 |
eb|-------------------------------||-------------------------------||-------------------------------|
Bb|-------------------------------||-------------------------------||-------------------------------|
Gb|--------4\---------------------||--------4-4--4-4---------------||-------------------------------|
Db|-------------------------------||-------------------------------||-------------------------------|
Ab|-------------------------------||-------------------------------||-------------------------------|
Db|-------------------------------||-------------------------------||-------------------------------|
                                                                  3x                               2x

eb|-------------------------------||-------------------------------||-------------------------------|
Bb|-------------------------------||-------------------------------||-------------------------------|
Gb|-------------------------------||-------------------------------||--4----------------------------|
Db|-----------------9---/---11----||-----------------9---/---11----||--2----------------------------|
Ab|--11-------------7---/---9-----||--11-------------7---/---9-----||--0--------------------/14\----|
Db|--11---------------------------||--11---------------------------||-------------------------------|
  |                                                                                                 |
eb|-------------------------------||-------------------------------||-------------------------------|
Bb|-------------------------------||-------------------------------||-------------------------------|
Gb|--------4\---------------------||--------4-4--4-4---------------||-------------------------------|
Db|-------------------------------||-------------------------------||-------------------------------|
Ab|-------------------------------||-------------------------------||-------------------------------|
Db|-------------------------------||-------------------------------||-------------------------------|
                                                                  3x

[Chorus]
eb|-------------------------|--------------------------|--------------------------|--------------------------|
Bb|-------------------------|--------------------------|--------------------------|--------------------------|
Gb|-------------------------|--------------------------|--------------------------|--------------------------|
Db|-------7--7-/-9--9-/-11--|--------7--7-\-5--5-/-14--|--------7--7-/-9--9-/-11--|--14-14-14-14----14----14-|
Ab|-9-----5--5-/-7--7-/-9---|--9-----5--5-\-4--4-/-12--|--9-----5--5-/-7--7-/-9---|--12-12-12-12----12----12-|
Db|-9-----------------------|--9-----------------------|--9-----------------------|--------------------------|

eb|-------------------------|--------------------------|--------------------------|--------------------------|
Bb|-------------------------|--------------------------|--------------------------|--------------------------|
Gb|-------------------------|--------------------------|--------------------------|--------------------------|
Db|-------7--7-/-9--9-/-11--|--------7--7-\-5--5-/-14--|--------7--7-/-9--9-/-11--|-----------------2--------|
Ab|-9-----5--5-/-7--7-/-9---|--9-----5--5-\-4--4-/-12--|--9-----5--5-/-7--7-/-9---|--12-0--------4--0--------|
Db|-9-----------------------|--9-----------------------|--9-----------------------|-----0--------------------|

eb|-------------------------|--------------------------|--------------------------|--------------------------|
Bb|-------------------------|--------------------------|--------------------------|--------------------------|
Gb|-------------------------|--------------------------|--------------------------|--------------------------|
Db|-------7--7-/-9--9-/-11--|--------7--7-\-5--5-/-14--|--------7--7-/-9--9-/-11--|--14-14-14-14----14----14-|
Ab|-9-----5--5-/-7--7-/-9---|--9-----5--5-\-4--4-/-12--|--9-----5--5-/-7--7-/-9---|--12-12-12-12----12----12-|
Db|-9-----------------------|--9-----------------------|--9-----------------------|--------------------------|

eb|-------------------------|--------------------------|--------------------------|--------------------------|
Bb|-------------------------|--------------------------|--------------------------|--------------------------|
Gb|-------------------------|--------------------------|--------------------------|--------------------------|
Db|-------7--7-/-9--9-/-11--|--------7--7-\-5--5-/-14--|--------7--7-/-9--9-/-11--|--7-----7-----7--7--7--7--|
Ab|-9-----5--5-/-7--7-/-9---|--9-----5--5-\-4--4-/-12--|--9-----5--5-/-7--7-/-9---|--5-----------5--5--5--5--|
Db|-9-----------------------|--9-----------------------|--9-----------------------|--------------------------|

[Bridge]
eb|-------------------------|--------------------------|--------------------------|--------------------------|
Bb|-------------------------|--------------------------|--------------------------|--------------------------|
Gb|-4-----------------------|--4-----------------------|--4-----------------------|--4-----------------------|
Db|-5-----------------------|--2-----------------------|--5-----------------------|--2-----------------------|
Ab|-3-----------------------|--0-----------------------|--3-----------------------|--0-----------------------|
Db|-------------------------|--------------------------|--------------------------|--------------------------|

eb|-----------------|--------------------|--------------------|---------------------|
Bb|-----------------|--------------------|--------------------|---------------------|
Gb|-----------------|--------------------|--------------------|---------------------|
Db|-----------------|--------------------|--------------------|---------------------|
Ab|--3-3--5-5-5--7--|--7-7--10-10-10-10--|--3------5-5-----7--|--7--7--10-10-(10)\--|
Db|-----------------|--------------------|--------------------|---------------------|
  |                                                                                 |
eb|-----------------|--------------------|--------------------|---------------------|
Bb|-----------------|--------------------|--------------------|---------------------|
Gb|--4--------------|--------------------|--4-----------------|---------------------|
Db|--5--------------|--------------------|--2-----------------|---------------------|
Ab|--3--------------|--------------------|--0-----------------|---------------------|
Db|-----------------|--------------------|--------------------|---------------------|

eb|-----------------|--------------------|--------------------|---------------------|
Bb|-----------------|--------------------|--------------------|---------------------|
Gb|-----------------|--------------------|--------------------|---------------------|
Db|-----------------|--------------------|--------------------|---------------------|
Ab|--3-3--5-5-5--7--|--7-7--10-10-10-10--|--3------5-5-----7--|--7--7--10-10-(10)\--|
Db|-----------------|--------------------|--------------------|---------------------|
  |                                                                                 |
eb|-----------------|--------------------|--------------------|---------------------|
Bb|-----------------|--------------------|--------------------|---------------------|
Gb|--4--------------|--------------------|--4-----------------|---------------------|
Db|--5--------------|--------------------|--2-----------------|---------------------|
Ab|--3--------------|--------------------|--0-----------------|---------------------|
Db|-----------------|--------------------|--------------------|---------------------|

[Tag]
eb|-------------------------|-------------------------||--------------------------|--------------------------|
Bb|-------------------------|-------------------------||--------------------------|--------------------------|
Gb|-------------------------|-------------------------||--------------------------|--------------------------|
Db|-------7--7-/-9--9-/-11--|-------7--7-\-5--5-/-14--||--------7--7-/-9--9-/-11--|--------------------------|
Ab|-9-----5--5-/-7--7-/-9---|-9-----5--5-\-4--4-/-12--||--9-----5--5-/-7--7-/-9---|--------------------------|
Db|-9-----------------------|-9-----------------------||--9-----------------------|--------------------------|
                                                       3x

eb|-------------------------|--------------------------|--------------------------|--------------------------|
Bb|-------------------------|--------------------------|--------------------------|--------------------------|
Gb|-16~~~~~~~~~~~~~~~~~~~~--|--(16)~~~~~~~~~~~~~~~~~~--|--(16)~~~~~~~~~~~~~~~~~~--|--(16)b------r16----------|
Db|-------------------------|--------------------------|--------------------------|--------------------------|
Ab|-------------------------|--------------------------|--------------------------|--------------------------|
Db|-------------------------|--------------------------|--------------------------|--------------------------|
  |                                                                                                          |
eb|-------------------------|--------------------------|--------------------------|--------------------------|
Bb|-------------------------|--------------------------|--------------------------|--------------------------|
Gb|-------------------------|--------------------------|--------------------------|--------------------------|
Db|-------7--7-/-9--9-/-11--|--------7--7-\-5--5-/-14--|--------7--7-/-9--9-/-11--|-----------------2--------|
Ab|-9-----5--5-/-7--7-/-9---|--9-----5--5-\-4--4-/-12--|--9-----5--5-/-7--7-/-9---|--12-0--------4--0--------|
Db|-9-----------------------|--9-----------------------|--9-----------------------|-----0--------------------|

[Chorus]
eb|-------------------------|--------------------------|--------------------------|--------------------------|
Bb|-------------------------|--------------------------|--------------------------|--------------------------|
Gb|-------------------------|--------------------------|--------------------------|--------------------------|
Db|-------7--7-/-9--9-/-11--|--------7--7-\-5--5-/-14--|--------7--7-/-9--9-/-11--|--14-14-14-14----14---14--|
Ab|-9-----5--5-/-7--7-/-9---|--9-----5--5-\-4--4-/-12--|--9-----5--5-/-7--7-/-9---|--12-12-12-12----12---12--|
Db|-9-----------------------|--9-----------------------|--9-----------------------|--------------------------|
  |                                                                                                          |
eb|-------------------------|--------------------------|--------------------------|--------------------------|
Bb|-17b--------------17^----|--17b--------------17^----|--17b-17------------------|--------------------------|
Gb|-------------------------|--------------------------|---------16-----------16--|--14-16-14-16b--------16b-|
Db|-------------------------|--------------------------|--------------------------|--------------------------|
Ab|-------------------------|--------------------------|--------------------------|--------------------------|
Db|-------------------------|--------------------------|--------------------------|--------------------------|

eb|-------------------------|--------------------------|--------------------------|--------------------------|
Bb|-------------------------|--------------------------|--------------------------|--------------------------|
Gb|-------------------------|--------------------------|--------------------------|--------------------------|
Db|-------7--7-/-9--9-/-11--|--------7--7-\-5--5-/-14--|--------7--7-/-9--9-/-11--|-----------------2--------|
Ab|-9-----5--5-/-7--7-/-9---|--9-----5--5-\-4--4-/-12--|--9-----5--5-/-7--7-/-9---|--12-0--------4--0--------|
Db|-9-----------------------|--9-----------------------|--9-----------------------|-----0--------------------|
  |                                                                                                          |
eb|-------------------------|--------------------------|--------------------------|--17b---------------r(17)-|
Bb|-------------------------|--------------------------|--17b----(17)17^---(17)b--|--------------------------|
Gb|-16-------14h16----16----|--14h16--16—-14h16--16-14-|--------------------------|--------------------------|
Db|-------------------------|--------------------------|--------------------------|--------------------------|
Ab|-------------------------|--------------------------|--------------------------|--------------------------|
Db|-------------------------|--------------------------|--------------------------|--------------------------|

eb|-------------------------|--------------------------|--------------------------|--------------------------|
Bb|-------------------------|--------------------------|--------------------------|--------------------------|
Gb|-------------------------|--------------------------|--------------------------|--------------------------|
Db|-------7--7-/-9--9-/-11--|--------7--7-\-5--5-/-14--|--------7--7-/-9--9-/-11--|--14-14-14-14----14----14-|
Ab|-9-----5--5-/-7--7-/-9---|--9-----5--5-\-4--4-/-12--|--9-----5--5-/-7--7-/-9---|--12-12-12-12----12----12-|
Db|-9-----------------------|--9-----------------------|--9-----------------------|--------------------------|
  |                                                                                                          |
eb|-17b---17b---17b---17^---|--17b---17b---17^---17^---|--17^----14---17^---17^---|--------------------------|
Bb|-------------------------|--------------------------|--------------------------|--17b-----17b-------r(17)-|
Gb|-------------------------|--------------------------|--------------------------|--------------------------|
Db|-------------------------|--------------------------|--------------------------|--------------------------|
Ab|-------------------------|--------------------------|--------------------------|--------------------------|
Db|-------------------------|--------------------------|--------------------------|--------------------------|

eb|-------------------------|--------------------------|--------------------------|--------------------------|
Bb|-------------------------|--------------------------|--------------------------|------------------------0-|
Gb|-------------------------|--------------------------|--------------------------|--------------------------|
Db|-------7--7-/-9--9-/-11--|--------7--7-\-5--5-/-14--|--------7--7-/-9--9-/-11--|-----------------2--------|
Ab|-9-----5--5-/-7--7-/-9---|--9-----5--5-\-4--4-/-12--|--9-----5--5-/-7--7-/-9---|--12-0--------4--0--------|
Db|-9-----------------------|--9-----------------------|--9-----------------------|-----0--------------------|
  |                                                                                                          |
eb|-------------------------|--------------------------|--------------------------|--------------------------|
Bb|-------------------------|--------------------------|--------------------------|--------------------------|
Gb|-16-------14h16----16----|--14h16---16---14h16--16--|--14h16-----16b----r(16)--|--14h16-------16-14-------|
Db|-------------------------|--------------------------|--------------------------|--------------------------|
Ab|-------------------------|--------------------------|--------------------------|--------------------------|
Db|-------------------------|--------------------------|--------------------------|--------------------------|

[Outro]
eb|--2------------|---------------|---------------|---------------|
Bb|--------0------|---------------|---------------|------------0--|
Gb|---------------|---------------|---------------|---------------|
Db|---------------|---------------|---------------|---------------|
Ab|---------------|---------------|---------------|---------------|
Db|---------------|---------------|---------------|---------------|
  |                                                               |
eb|---------------|---------------|---------------|---------------|
Bb|---------------|---------------|---------------|---------------|
Gb|--16\----------|---------------|---------------|---------------|
Db|---------------|---------------|---------------|---------------|
Ab|---------------|---------------|---------------|---------------|
Db|---------------|---------------|---------------|---------------|

eb|--2--------------------------|-----------------------------|
Bb|------------0----------------|--------------------------0--|
Gb|-----------------------------|-----------------------------|
Db|-----------------------------|-----------------------------|
Ab|-----------------------------|-----------------------------|
Db|-----------------------------|-----------------------------|
  |                                                           |
eb|-----------------------------|-----------------------------|
Bb|-----------------------------|-----------------------------|
Gb|--4--4-4-4--4--4-4-4-4-4--4--|--4--4-4-4--4--4-4-4-4-4--4--|
Db|-----------------------------|-----------------------------|
Ab|--2--2-2-2--2--2-2-2-2-2--2--|--2--2-2-2--2--2-2-2-2-2--2--|
Db|-----------------------------|-----------------------------|

eb|--0--------------------------|-----------------------------|
Bb|------------0----------------|--------------------------0--|
Gb|-----------------------------|-----------------------------|
Db|-----------------------------|-----------------------------|
Ab|-----------------------------|-----------------------------|
Db|-----------------------------|-----------------------------|
  |                                                           |
eb|-----------------------------|-----------------------------|
Bb|-----------------------------|-----------------------------|
Gb|--4--4-4-4--4--4-4-4-4-4--4--|--4--4-4-4--4--4-4-4-4-4--4--|
Db|-----------------------------|-----------------------------|
Ab|--2--2-2-2--2--2-2-2-2-2--2--|--2--2-2-2--2--2-2-2-2-2--2--|
Db|-----------------------------|-----------------------------|

eb|--2-------------------------------------|----------------------------------------||--2-----|
Bb|----------------0-----------------------|------------------------------------0---||--------|
Gb|----------------------------------------|----------------------------------------||--------|
Db|----------------------------------------|----------------------------------------||--------|
Ab|----------------------------------------|----------------------------------------||--------|
Db|----------------------------------------|----------------------------------------||--------|
  |                                                                                           |
eb|----------------------------------------|----------------------------------------||--------|
Bb|----------------------------------------|----------------------------------------||--------|
Gb|--16--16-16-16--16--16-16-16-16-16--16--|--16--16-16-16--16--16-16-16-16-16--16--||--16----|
Db|----------------------------------------|----------------------------------------||--------|
Ab|--14--14-14-14--14--14-14-14-14-14--14--|--14--14-14-14--14--14-14-14-14-14--14--||--14----|
Db|----------------------------------------|----------------------------------------||--------|
                                                                                   4x

************************************

| (n) Ghost note
| r   Release
| b   Bend
| ^   Bend/release
| /   Slide up
| \   Slide down
| ~   Vibrato

************************************

            
            
Suggest correction
Creating personal tab
Creating personal tab
You can edit any tab online and save it as your Personal.

You can edit, replace or remove any tab part or add personal notes – all changes will be seen only by you.

Personal tabs can be accessed anytime from any device, even offline.
Learn more »
Give kudos to tab author, rate the tab!
1 2 3 4 5
comments
print report bad tab
guest
You may want to rate the tab now too:
select rating
Wanna post a correction for this tab? Suggest correction