Oops, an error
Loading. Please wait.

Living In A Dream bass

version 1
version 1

Whole song

Interactive

3,731 views 1 this week
no commentswrite comment
1 2 3 4 5
x 4
add to favorites
×
Save as Personal and add changes to this tab that will be seen only by you. Learn more ›
×
You can save this tab as Personal to edit and correct it or add notes. All changes will be seen only by you. Learn more »
launch autoscroll
font size
0
reset
guitar tuner
edit
Autoscroll
slow
fast
+/-
esc
set tempo
stop
Author
Difficulty
song- living in a dream
tabbed by-poxonaor
email-hazzpoxon@hotmail.com
please feel free to send any tab suggestions to me via my email if you like this tab :D
PLEASE READ THIS!
from what i've heard of this song it seems to be tuned half a step down

guitar intro

intro
gb---------------|
db---------------|
ab---0-2-0-2-----|
eb-2---------0---| x3

gb---7----9--|
db--7-7--9-9-|
ab-5----7----|
eb-----------|

verse
gb---------------------------------------------|
db---------------------------------------------|
ab-------------5-5-5-5-55-2-2-2-2-22-4-4-4-4---|
eb-2-2-2-2-22--------------------------------5-|

gb----------------------------------------------|
db----------------------------------------------|
ab-------------5-5-5-5-55-0-0-0-0-00-4-4-4-4-44-|
eb-2-2-2-2-22-----------------------------------|

build up
gb--------------------------------|
db--------------------------------|
ab-5-5-5-5-5-5-5-5-97-97-97-97-9\-|
eb--------------------------------|

chorus
gb--------------2--------------------2-------|
db-----2-------0-0-2--2h4---2-------0-0-2----|
ab----0-----2-2------------0-0---2-2---------|
eb-2-2--0------------2---2------- -----------|

gb-------------------------|
db-------------------------|
ab------0-00~-2-22~-5-55-7-|
eb-2~2~--------------------|

gb--------------------------------|
db--------------------------------|
ab-5-5-5-5-5-5-5-5-97-97-97-97-9\-|
eb--------------------------------|

gb----------------------------|
db----------------------------|
ab---0-2-0-2------0-2-0-2-----|
eb-2---------0--2---------0-2-|

vocal and drums

verse
gb----------------------------------------------|
db----------------------------------------------|
ab-------------5-5-5-5-55-0-0-0-0-00-4-4-4-4-44-|
eb-2-2-2-2-22-----------------------------------|

build up
gb--------------------------------|
db--------------------------------|
ab-5-5-5-5-5-5-5-5-97-97-97-97----|
eb--------------------------------|

chorus
gb--------------2--------------------2-------|
db-----2-------0-0-2--2h4---2-------0-0-2----|
ab----0-----2-2------------0-0---2-2---------|
eb-2-2--0------------2---2------- -----------|

gb-------------------------|
db-------------------------|
ab------0-00~-2-22~-5-55-7-|
eb-2~2~--------------------|

gb--------------------------------|
db--------------------------------|
ab-5-5-5-5-5-5-5-5-97-97-97-97-9\-|
eb--------------------------------|

bridge/guitar solo
gb------------------------------------------------------------------|
db------------------------------------------------------------------|
ab-5-5-5-5-5-5-5-5--2-2-2-2-2-2-2-2-----------------0-0-0-0-0-0-0-0-|
eb----------------------------------2-2-2-2-2-2-2-2-----------------|
(sixteens not one and six)
gb-------------------------------------------------------------------------|
db-------------------------------------------------------------------------|
ab-5-5-5-5-5-5-5-5-2-2-2-2-2-2-2-2-4-4-4-4/16-16-16-16\4-4-4-4/16-16-16-16-|
eb-------------------------------------------------------------------------|

gb--------------------------------------------------------------------|
db--------------------------------------------------------------------|
ab-5-5-5-5-5-5-5-5-7-7-7-7-7-7-7-7-5-5-5-5-5-5-5-5-7-7-7-7-7-7-7-7-9\-|
eb--------------------------------------------------------------------|

i've been living in a dream about you
and now i know you were all i ever
wanted on my mind!

gb-------------------------|
db-------------------------|
ab------0-00~-2-22~-5-55-7-|
eb-2~2~--------------------|

gb--------------------------------|
db--------------------------------|
ab-5-5-5-5-5-5-5-5-97-97-97-97-9\-|
eb--------------------------------|

outro
gb---------------|
db---------------|
ab---0-2-0-2-----|
eb-2---------0---| x3

gb---7----9--|
db--7-7--9-9-|
ab-5----7----|
eb-----------|

gb---------------|
db---------------|
ab---0-2-0-2-----|
eb-2---------0---| x3

gb---7----9----|
db--7-7--9-9---|
ab-5----7------|
eb-----------2-|

Hope you enjoy it! :D

            
            
Suggest correction
Creating personal tab
Creating personal tab
You can edit any tab online and save it as your Personal.

You can edit, replace or remove any tab part or add personal notes – all changes will be seen only by you.

Personal tabs can be accessed anytime from any device, even offline.
Learn more »
comments
print report bad tab
guest
You may want to rate the tab now too:
select rating
Wanna post a correction for this tab? Suggest correction