Oops, an error
Loading. Please wait.

Living In A Dream bass

version 2
version 2

Whole song

Interactive

2,138 views 3 this week
1 commentread comment
1 2 3 4 5
x 4
add to favorites
×
Save as Personal and add changes to this tab that will be seen only by you. Learn more ›
×
You can save this tab as Personal to edit and correct it or add notes. All changes will be seen only by you. Learn more »
launch autoscroll
font size
0
reset
guitar tuner
edit
Autoscroll
slow
fast
+/-
esc
set tempo
stop
Author
Difficulty
song- living in a dream
tabbed by-poxonaor
email-hazzpoxon@hotmail.com
please feel free to send any tab suggestions to me via my email if you like this tab :D
PLEASE RATE AND COMMENT
PLEASE READ THIS!
hear is the same song but now in normal tuning if you can't be bothered to change the tuning

guitar intro

intro
g-------------------|
d-------------------|
a-------------------|
e-1-4------6-4-6-4--| x3

g---6----8---|
d--6-6--8-8--|
a-4----6-----|
e------------|

verse
g---------------------------------------------|
d---------------------------------------------|
a-------------4-4-4-4-44-1-1-1-1-11-3-3-3-3---|
e-1-1-1-1-11--------------------------------4-|

g------------------------------------------------|
d------------------------------------------------|
a-------------4-4-4-4-44--------------3-3-3-3-33-|
e-1-1-1-1-11--------------4-4-4-4-44-------------|

build up
g--------------------------------|
d--------------------------------|
a-4-4-4-4-4-4-4-4-86-86-86-86-8\-|
e--------------------------------|

chorus
g-------------------------------------------|
d---------------6-----1h3------------6------|
a------6---1-1-4-4-6--------6---1-1-4-4-6~--|
e-1-1-4-4------------1---1-4-4--------------|

g-------------------------|
d-------------------------|
a------------1-11~-4-44-6-|
e-1~1~-4-44~--------------|

g--------------------------------|
d--------------------------------|
a-4-4-4-4-4-4-4-4-86-86-86-86-8\-|
e--------------------------------|

g-------------------|
d-------------------|
a-------------------|
e-1-4------6-4-6-4--| x2

vocal and drums

verse
g----------------------------------------------|
d----------------------------------------------|
a-------------4-4-4-4-44--------------3-3-3-3--|
e-1-1-1-1-11--------------4-4-4-4-44-----------|

build up
g--------------------------------|
d--------------------------------|
a-4-4-4-4-4-4-4-4-86-86-86-86----|
e--------------------------------|

chorus
g-------------------------------------------|
d---------------6-----1h3------------6------|
a------6---1-1-4-4-6--------6---1-1-4-4-6~--|
e-1-1-4-4------------1---1-4-4--------------|

g-------------------------|
d-------------------------|
a------------1-11~-4-44-6-|
e-1~1~-4-44~--------------|

g--------------------------------|
d--------------------------------|
a-4-4-4-4-4-4-4-4-86-86-86-86-8\-|
e--------------------------------|

bridge/guitar solo
g-----------------------------------------------------------------|
d-----------------------------------------------------------------|
a-4-4-4-4-4-4-4-4-1-1-1-1-1-1-1-1---------------------------------|
e---------------------------------1-1-1-1-1-1-1-1-4-4-4-4-4-4-4-4-|
(fifteens not one and fives)
gb--------------------------------------------------------------------------|
db--------------------------------------------------------------------------|
ab-4-4-4-4-4-4-4-4-1-1-1-1-1-1-1-1-3-3-3-3/15-15-15-15\3-3-3-3/15-15-15-15\-|
eb--------------------------------------------------------------------------|

gb--------------------------------------------------------------------|
db--------------------------------------------------------------------|
ab-4-4-4-4-4-4-4-4-6-6-6-6-6-6-6-6-4-4-4-4-4-4-4-4-6-6-6-6-6-6-6-6-8\-|
eb--------------------------------------------------------------------|

i've been living in a dream about you
and now i know you were all i ever
wanted on my mind!

g-------------------------|
d-------------------------|
a------------1-11~-4-44-6-|
e-1~1~-4-44~--------------|

g--------------------------------|
d--------------------------------|
a-4-4-4-4-4-4-4-4-86-86-86-86-8\-|
e--------------------------------|

outro
g-------------------|
d-------------------|
a-------------------|
e-1-4------6-4-6-4--| x3

g---6----8---|
d--6-6--8-8--|
a-4----6-----|
e------------|

g-------------------|
d-------------------|
a-------------------|
e-1-4------6-4-6-4--| x3

g---6----8---|
d--6-6--8-8--|
a-4----6-----|
e------------|

Hope you enjoy it! :D

            
            
Suggest correction
Creating personal tab
Creating personal tab
You can edit any tab online and save it as your Personal.

You can edit, replace or remove any tab part or add personal notes – all changes will be seen only by you.

Personal tabs can be accessed anytime from any device, even offline.
Learn more »
comments
print report bad tab
1 comment total.
0 reply
poxonaor 213 Sep 12, 2010 08:04 AM

this tab goes with this version of the song http://www.youtube.com/watch?v=wFEBm-pBQ1Q

guest
You may want to rate the tab now too:
select rating
Wanna post a correction for this tab? Suggest correction