Oops, an error
Loading. Please wait.

Living In A Dream tab

version 3
version 3

Whole song

Interactive

4,793 views 3 this week
no commentswrite comment
1 2 3 4 5
1 last vote to show rating
add to favorites
×
Save as Personal and add changes to this tab that will be seen only by you. Learn more ›
×
You can save this tab as Personal to edit and correct it or add notes. All changes will be seen only by you. Learn more »
launch autoscroll
font size
0
reset
how to read this tab
guitar tuner
edit
Autoscroll
slow
fast
+/-
esc
set tempo
stop
Author
"Finger Eleven" - "Living In A Dream"

Guitar#1: The Distortion-Guitar - DROP-D
Guitar#2: The Clean Guitar      - STANDARD TUNING
Guitar#3: The Effect Guitar     - STANDARD TUNING

Intro:
Git #1 (with effect)
e|----------------------------------------------------------------|
B|----------------------------------------------------------------|
G|----------------------------------------------------------------|
D|----------------------------------------------------------------|
A|----------6--6------------6--6------------6--6------------------|
D|3---6------8--8-3---6------8--8-3---6------8--8-3---6-----------|

Pre-Verse:
Git #1
e|----------------------------------------------------------------|
B|----------------------------------------------------------------|
G|----------------------------------------------------------------|
D|------------------------------------------------6-6-6-6-8-8-8-8-|
A|-----------1-11----------------------------1-11-4-4-4-4-6-6-6-6-|
D|3---6----------13---6------1-1113---6----------1----------------|

Git #2
e|---------------------------------------------------------------------------------------------|
B|-----9-/13-\11-9---------------9-/13-\11-9---------------9-/13-\11-9-------------------------|
G|--10------------10-10101010-10------------10-10101010-10------------10-101010----------------|
D|---------------------------------------------------------------------------------------------|
A|---------------------------------------------------------------------------------------------|
E|---------------------------------------------------------------------------------------------|

Git #3
e|----------------------------------------------------4-----------|
B|------------------------------------------------6-6-6-6/8-8-8888|
G|------------------------------------------------6-6-6-6/8-8-8888|
D|----------68-86-----------68-86-----------68-86-----------------|
A|--8-8-8-8------68-8-8-8-8------68-8-8-8-8------6----------------|
E|----------------------------------------------------------------|

Verse:
Git #2
e|----13--13--13-x131313--13--13--13-x131313--13--13-x13-x1313/15--15--15151515-1515-|
B|----13--13--13-x131313--13--13--13-x131313--13--13-x13-x1313/17--17--17171717-1717-|
G|10--13--13--13-x131313--13--13--13-x131313--13--13-x13-x1313/17--17--17171717-1717-|
D|10---------------------------------------------------------------------------------|
A|-----------------------------------------------------------------------------------|
E|-----------------------------------------------------------------------------------|

Git #1
e|----------------------------------------------------------------|
B|----------------------------------------------------------------|
G|----------------6---6------6-666----------------5---5---5-x5-555|
D|3---3------3-3336---6------6-6666---6------6-6665---5---5-x5-555|
A|3---3------3-3334---4------4-4446---6------6-6663---3---3-x3-333|
D|3---3------3-333----------------6---6------6-666----------------|

Pre-Chorus:
Git #1
e|--------------------------------|
B|--------------------------------|
G|6---6-6-6-6-6-6-----------------|
D|6---6-6-6-6-6-6-----------------|
A|4---4-4-4-4-4-4-86-86-86-86-8\--|
D|--------------------------------|

Git #2
e|--------------------------------|
B|6---6-6-6-6-6-6-8---------------|
G|6---6-6-6-6-6-6-8---------------|
D|6---6-6-6-6-6-6-8---------------|
A|4---4-4-4-4-4-4-6---------------|
E|--------------------------------|

Chorus:

Git #1
e|--------------------------------------------------------------------------|
B|--------------------------------------------------------------------------|
G|--------------------------------------------------------------------------|
D|--------------------------------------------------------------------------|
A|----------6-----------------11-----------------6-----------------11-------|
D|3---3---66-6------8-8---1111--11--13-3---3---6--6------8-8---11----11--13-|

e|-----------------------------------------------------------------------------|
B|-----------------------------------------------------------------------------|
G|-----------------------------------------------------------------------------|
D|3---3---x6-66---x8-88---x11--1111--1311-11-11-11-11-11-11-11-----------------|
A|3---3---x6-66---x8-88---x11--1111--1311-11-11-11-11-11-11-11-86-86-86-86-8\--|
D|3---3---x6-66---x8-88---x11--1111--1311-11-11-11-11-11-11-11-----------------|

Git #2
e|--------------1313---------------------------------1313------------------|
B|--------------1313---------------------------------1313------------------|
G|--------------1313---------------------------------1313------------------|
D|--------------------------------------1h3--------------------------------|
A|----------6-----------------11-----------------6-----------------11------|
E|1---1---44-4--------6-6---99--9--10-1----1---4--4--------6-6---9---9--11-|

e|1---1---x4-44---------------------------------------------------|
B|1---1---x4-44---x3-33---x6-66--86---6-6-6-6-6-6-8---------------|
G|2---2---x5-55---x3-33---x6-66--86---6-6-6-6-6-6-8---------------|
D|3---3---x6-66---x3-33---x6-66--86---6-6-6-6-6-6-8---------------|
A|3---3---x6-66---x1-11---x4-44--64---4-4-4-4-4-4-6---------------|
E|1---1---x4-44---------------------------------------------------|

After The Chorus, You play half of the "Pre-Verse".

In the first half of the next Verse, there is just a bunch of F11-Effects.
In the 2nd half, Guitar#2 has a little bit Distortion and Guitar#1 plays this:
(which is nearly exactly the same as in the first Verse)
Git #1
e|----------------------------------------------------------------|
B|----------------------------------------------------------------|
G|----------------------------------------------------------------|
D|----------------6---6---6--6-666----------------5---5---5--5-555|
A|3---3---3--3-3334---4---4--4-4446---6---6--6-6663---3---3--3-333|
D|3---3---3--3-333----------------6---6---6--6-666----------------|

There's also the Effect-Guitar joining in this Verse:
Git #3
e|----------|--------------------------------------------------------------------|
B|----b13b11|p9----------b13b11p9----------b13b11p9------------------------------|
G|----------|--------------------------------------------------------------------|
D|----------|--------------------------------------------------------------------|
A|----------|--------------------------------------------------------------------|
E|----------|--------------------------------------------------------------------|

Then play the short Pre-Chorus again, just without the slide-out.
Then the Chorus again...

Bridge:
Git #1
e|------------------------------------------------------------------------|
B|------------------------------------------------------------------------|
G|------------------------------------------------------------------------|
D|11-11-11-11-11-11-11-11-8-8-8-8-8-8-8-8-3-3-3-3-3-3-3-3-6-6-6-6-6-6-6-6-|
A|11-11-11-11-11-11-11-11-8-8-8-8-8-8-8-8-3-3-3-3-3-3-3-3-6-6-6-6-6-6-6-6-|
D|11-11-11-11-11-11-11-11-8-8-8-8-8-8-8-8-3-3-3-3-3-3-3-3-6-6-6-6-6-6-6-6-|

e|----------------------------------------------------------------------------------------|
B|----------------------------------------------------------------------------------------|
G|----------------------------------------------------------------------------------------|
D|11-11-11-11-11-11-11-11-8-8-8-8-8-8-8-8-10-10-10-10-10-10-10-10-10-10-10-10-10-10-10-10-|
A|11-11-11-11-11-11-11-11-8-8-8-8-8-8-8-8-10-10-10-10-10-10-10-10-10-10-10-10-10-10-10-10-|
D|11-11-11-11-11-11-11-11-8-8-8-8-8-8-8-8-10-10-10-10-10-10-10-10-10-10-10-10-10-10-10-10-|

e|------------------------------------------------------------------------------------------------|
B|------------------------------------------------------------------------------------------------|
G|------------------------------------------------------------------------------------------------|
D|11-11-11-11-11-11-11-11-13-13-13-13-13-13-13-13-11-11-11-11-11-11-11-11-13-13-13-13-13-13-13-13-|
A|11-11-11-11-11-11-11-11-13-13-13-13-13-13-13-13-11-11-11-11-11-11-11-11-13-13-13-13-13-13-13-13-|
D|11-11-11-11-11-11-11-11-13-13-13-13-13-13-13-13-11-11-11-11-11-11-11-11-13-13-13-13-13-13-13-13-|

Git #2 (with Distortion)
e|13----13----11----11----9----9----8---8-----------------------------------|
B|---14----14----13----13---11---11---9---9-9-9-9-9-9-9-9-9-8b9b8-6---------|
G|--------------------------------------------------------------------------|
D|--------------------------------------------------------------------------|
A|--------------------------------------------------------------------------|
E|--------------------------------------------------------------------------|

e|13----13----11----11----9----9----8---8-----------------------------------------------|
B|---14----14----13----13---11---11---9---9-11b13-------11b13----b13b11p911-9-11b13-----|
G|--------------------------------------------------------------------------------------|
D|--------------------------------------------------------------------------------------|
A|--------------------------------------------------------------------------------------|
E|--------------------------------------------------------------------------------------|

e|11b13-----------------------------18b20----18b20----18b20b18p1618----1618b20--b20b18p16|----|
B|---------------------------------------------------------------------------------------|18--|
G|---------------------------------------------------------------------------------------|----|
D|---------------------------------------------------------------------------------------|----|
A|---------------------------------------------------------------------------------------|----|
E|---------------------------------------------------------------------------------------|----|

Git #3 (joins after Scott stops singing),(play this 4 times)
e|---------------------|
B|----9-11b13b11-9-----|
G|-10--------------10--|
D|---------------------|
A|---------------------|
E|---------------------|

Then here comes the INTRO again.
Before the 2nd half of the Chorus is coming again, both guitars play this:
e|13hold-----------------|
B|16slowbanding18--------|
G|-----------------------|
D|-----------------------|
A|-----------------------|
D|-----------------------|

In the last 2nd half of the Chorus, the solo guitar is joining with this:
e|---------------------------------------------------11---------11----11------------------|
B|----9-11b13b11-9---------9-11b13b11-9----911b13hold-------13----13----13--b11-----------|
G|-10--------------10---10--------------10------------------------------------------------|
D|----------------------------------------------------------------------------------------|
A|----------------------------------------------------------------------------------------|
E|----------------------------------------------------------------------------------------|

Then play the so called "Pre-Verse" (twice)
The solo guitar is doing this at the end:
e|----11-----16b18--b16--|13--|
B|/13------13------------|----|
G|-----------------------|----|
D|-----------------------|----|
A|-----------------------|----|
E|-----------------------|----|
Suggest correction
Creating personal tab
Creating personal tab
You can edit any tab online and save it as your Personal.

You can edit, replace or remove any tab part or add personal notes – all changes will be seen only by you.

Personal tabs can be accessed anytime from any device, even offline.
Learn more »
Give kudos to tab author, rate the tab!
1 2 3 4 5
comments
print report bad tab
guest
You may want to rate the tab now too:
select rating
Wanna post a correction for this tab? Suggest correction