Oops, an error
Loading. Please wait.

One Thing Chords

version 1
version 1

Whole song

140,510 views 156 this week
14 commentsread comments
1 2 3 4 5
accurate
x 47
add to favorites
launch autoscroll
font size
0
reset
transpose
0
reset
display chords
guitar tuner
Autoscroll
slow
fast
+/-
esc
set tempo
stop
Help us to improve Ultimate-Guitar.com Take our survey!
×
Capo
1st fret
[Intro]

e|3-----3-----0---------0-------8--------8-------------3|
B|--3-----3--------3------3-----8---8-------8-----------|
G|----0-----0--------0------0----------0-------0--------| (repeat as needed)
D|------------------------------------------------------|
A|------------------------------------------------------|
E|3-----------3----------------------------------------3|


[Verse]

Restless tonight
cause i wasted the light
between both these times
i drew a really thin line
it's nothing i planned
and not that i can
but you should be mine
across that line


[Chorus]

(strumming enters)

G
If i traded it all
                         C
If i gave it all away for one thing
just for one thing
G
If i sorted it out
                        C
If i knew all about this one thing
wouldn't that be something


[Verse]

e|3-----3-----0---------0-------8--------8-------------3|
B|--3-----3--------3------3-----8---8-------8-----------|
G|----0-----0--------0------0----------0-------0--------|
D|------------------------------------------------------|
A|------------------------------------------------------|
E|3-----------3----------------------------------------3|
I promise i might
not walk on by
maybe next time
but not this time

Even though i know
i don't wanna know
yeah i guess i know
i just hate how it sounds


[Chorus]

G
If i traded it all
                         C
If i gave it all away for one thing
just for one thing
G
If i sorted it out
                        C
If i knew all about this one thing
wouldn't that be something

G
If i traded it all
                         C
If i gave it all away for one thing
just for one thing
G
If i sorted it out
                        C
If i knew all about this one thing
wouldn't that be something


[Verse]

e|3-----3-----0---------0-------8--------8-------------3|
B|--3-----3--------3------3-----8---8-------8-----------|
G|----0-----0--------0------0----------0-------0--------|
D|------------------------------------------------------|
A|------------------------------------------------------|
E|3-----------3----------------------------------------3|

Even though i know
i don't wanna know
yeah i guess i know
i just hate how it sounds

Even though i know
i don't want to know
yeah i guess i know
i just hate how it sounds  (silence)


[Chorus]

G
If i traded it all
                         C
If i gave it all away for one thing
just for one thing
G
If i sorted it out
                        C
If i knew all about this one thing
wouldn't that be something
Suggest correction new What's this?
You can suggest a correction to this tab. Community and Mods will review your correction and vote to approve or reject it.
comments
print report bad tab
14 comments total. Showing first comments.
0 reply
think11270 165 wrote on November 11 2003, 12:00 am

its played like this but its the same thing...it makes it easier

e--------------------------------10-------10---------------
B--10-------10----7--------7---------7--------7---10-------
G------9-------9-----9--------9--------9--------------------
D--7-----7--------7-----7--------7-----------------7--------
A-----------------------------------------------------------
E-----------------------------------------------------------

0 reply
Spike6sic6 935 wrote on November 13 2003, 12:00 am

I love this tab,good work.

+1 reply
elven_paladin 12 wrote on February 26 2004, 12:00 am

use a C/G chord instead and it sounds a bit better

guest
You may want to rate the tab now too:
select rating
Please do not post tabs as comments. Select "correction" instead!