Oops, an error
Loading. Please wait.

Other Light tab

version 2
version 2

Whole song

22 views 1 this week
no commentswrite comment
1 2 3 4 5
3 more votes to show rating
add to favorites
×
Save as Personal and add changes to this tab that will be seen only by you. Learn more ›
×
You can save this tab as Personal to edit and correct it or add notes. All changes will be seen only by you. Learn more »
launch autoscroll
font size
0
reset
how to read this tab
guitar tuner
edit
Autoscroll
slow
fast
+/-
esc
set tempo
stop
Finger Eleven
Other Light
Drop Db (Db,Ab,Db,Gb,Bb,Eb)
Tempo 94bpm 

[Intro]
eb|----------------------9----------|----------------------------|
Bb|-----------------9-10---10-9-10--|--------------9-b--r--b--r--|
Gb|---------------------------------|----------------------------|
Db|---------------------------------|----------------------------|
Ab|---------------------------------|----------------------------|
Db|---------------------------------|----------------------------|
  |                                                              |
eb|---------------------------------|----------------------------|
Bb|---------------------------------|----------------------------|
Gb|--11-11-11-6-6-6-7---(7)\--------|--9-9-9-4-4-4-6---(6)\------|
Db|--11-11-11-6-6-6-7---(7)\--------|--9-9-9-4-4-4-6---(6)\------|
Ab|--9--9--9--4-4-4-5---(5)\--------|--7-7-7-2-2-2-4---(4)\------|
Db|---------------------------------|----------------------------|
                                                                4x
     w/delay
eb|----------------------------|-------------------------------------|
Bb|--17---17---17-17-17-17-17--|--17-17-17-17---17---17-17-17-17-17--|
Gb|----------------------------|-------------------------------------|
Db|----------------------------|-------------------------------------|
Ab|----------------------------|-------------------------------------|
Db|----------------------------|-------------------------------------|
  |  gradual bend                                                    |
eb|----------------------------|-------------------------------------|
Bb|--9b------------------------|--~~~~~~~~~~~~~~~~~~~~~~~~~~~~~~~~~--|
Gb|----------------------------|-------------------------------------|
Db|----------------------------|-------------------------------------|
Ab|----------------------------|-------------------------------------|
Db|----------------------------|-------------------------------------|


eb|----------------------------17----17--|-----17-17-17-17-17-17-17-17-15-15-15--|
Bb|--17-17-17-17-17---17-17-17----17-----|--17-----------------------------------|
Gb|--------------------------------------|---------------------------------------|
Db|--------------------------------------|---------------------------------------|
Ab|--------------------------------------|---------------------------------------|
Db|--------------------------------------|---------------------------------------|


[Verse]
eb|----------------------------------------------|------------------------------------|
Bb|--17----17----17---17----17---17---17---17----|--17--17--17--17-----17-17--17--17--|
Gb|----------------------------------------------|------------------------------------|
Db|----------------------------------------------|------------------------------------|
Ab|----------------------------------------------|------------------------------------|
Db|----------------------------------------------|------------------------------------|
                    1.    Never tell your friends,           they’ll never understand
                    2. As simple as  they can              they’re telling you again

eb|----------------------------------------------|--------------------------------------|
Bb|--17----17----17---17----17---17---17---17----|-------17--17-17---17--15--15--15-----|
Gb|----------------------------------------------|----------------------------------15--|
Db|----------------------------------------------|--------------------------------------|
Ab|----------------------------------------------|--------------------------------------|
Db|----------------------------------------------|--------------------------------------|
                     Confessions on - ly  burn themselves    in  the fire
                        What they think you’ve done is so    un-be-com - ing

eb|----------------------------------------------|-------------------------------17----17--|
Bb|--17----17----17---17----17---17---17---17----|--17---17----17--17----17---17----17-----|
Gb|----------------------------------------------|-----------------------------------------|
Db|----------------------------------------------|-----------------------------------------|
Ab|----------------------------------------------|-----------------------------------------|
Db|----------------------------------------------|-----------------------------------------|
                      Choke on   ev - ery word                  that no one’s ev-er heard
                    But you don’t have to take                         every old mistake

eb|-----17-17-----17---17----17--17--15---15-----15--|-----15--15----15--15----15-15-15-15------|
Bb|--17----------------------------------------------|--15---------------------------------17---|
Gb|--------------------------------------------------|------------------------------------------|
Db|--------------------------------------------------|------------------------------------------|
Ab|--------------------------------------------------|------------------------------------------|
Db|--------------------------------------------------|------------------------------------------|
                  Your sen - ti-men-tal thoughts are    stran – gled   and tired
                    And al-ways  see  it  as      a     fall     while you’re run-ning


[Chorus]
eb|--------------------------------|--------------------------------|
Bb|--------------------------------|--------------------------------|
Gb|--9--9--9--4--4--4--5----(5)\---|--7--7--7--2--2--2--4----(4)\---|
Db|--9--9--9--4--4--4--5----(5)\---|--7--7--7--2--2--2--4----(4)\---|
Ab|--7--7--7--2--2--2--3----(3)\---|--5--5--5--0--0--0--2----(2)\---|
Db|--------------------------------|--------------------------------|    4x
    See      it      in        an  -  oth  -  er       light,  you’ll
    See      it      work  -  ing     out     al   -   right.   I
    Know     I       won’t  change    an   -  y        mind     as
    Long     as      they’re still    chang - ing      mine


[Verse 2]

[Chorus]

   [Chorus cont.]
eb|-------------------------9----------|-----------------------------------|
Bb|--------------------9-10---10-9-10--|--------------------9--b--r--b--r--|
Gb|------------------------------------|-----------------------------------|
Db|------------------------------------|-----------------------------------|
Ab|------------------------------------|-----------------------------------|
Db|------------------------------------|-----------------------------------|
  |                                                                        |
eb|------------------------------------|-----------------------------------|
Bb|------------------------------------|-----------------------------------|
Gb|--11-11-11-6--6--6--7----(7)\-------|--9--9--9--4--4--4--6----(6)\------|
Db|--11-11-11-6--6--6--7----(7)\-------|--9--9--9--4--4--4--6----(6)\------|
Ab|--9--9--9--4--4--4--5----(5)\-------|--7--7--7--2--2--2--4----(4)\------|
Db|------------------------------------|-----------------------------------|    4x
    Saw       it     in        an    -    oth  -  er       light.        I
    Saw       it     work  -  ing         out     al   -   right.        I
    Know      I      won’t                change  your     mind,        as
    Long      as     they  -  ’re         chang - ing      mine

[Interlude]
eb|---------------------------------------|---------------------------------------|
Bb|-----------------17----17-17-17-17-17--|--17-17-17-17-17-17-15-15-15----15-17--|
Gb|---------------------------------------|---------------------------------------|
Db|---------------------------------------|---------------------------------------|
Ab|---------------------------------------|---------------------------------------|
Db|---------------------------------------|---------------------------------------|

eb|-----17-17-17----17----17----17----15--|-----17-15----15----15-------------15--|
Bb|---------------------------------------|-----------------------15-15-15-15-----|
Gb|---------------------------------------|---------------------------------------|
Db|---------------------------------------|---------------------------------------|
Ab|---------------------------------------|---------------------------------------|
Db|---------------------------------------|---------------------------------------|

eb|-------------------------|-------------------------|-------------------------|-------------------------|
Bb|-------------------------|-------------------------|-------------------------|-------------------------|
Gb|-----9-----4-----5-------|-----7-----2-----4-------|-----9-----4-----5-------|-----7-----2-----4-------|
Db|---9-----4-----5---------|---7-----2-----4---------|---9-----4-----5---------|---7-----2-----4---------|
Ab|-7-----2-----3-----------|-5-----0-----2-----------|-7-----2-----3-----------|-5-----0-----2-----------|
Db|-------------------------|-------------------------|-------------------------|-------------------------|
  | pm. . . . . . . .  . . . . . . . . . . . . . . . . . . . . . . . . . . . . . . . . . . . . . . .      |
eb|-------------------------|-------------------------|-------------------------|-------------------------|
Bb|-------------------------|-------------------------|-------------------------|-------------------------|
Gb|-------------------------|-------------------------|-------------------------|-------------------------|
Db|-2-2-2-------------------|-------------------------|-2-2-2-------------------|-------------------------|
Ab|-------2-2-2-3-3-3-------|-5-5-5-0-0-0-2-2-2-------|-------2-2-2-3-3-3-------|-5-5-5-0-0-0-2-2-2-------|
Db|-------------------------|-------------------------|-------------------------|-------------------------|
    See   it    in       an – oth - er    light. You’ll see   it    work - ing    out   al -  right.    I

eb|-------------------------|-------------------------|-------------------------|-------------------------|
Bb|-------------------------|-------------------------|-------------------------|-------------------------|
Gb|-----9-----4-----5-------|-----7-----2-----4-------|-----9-----4-----5-------|-----7-----2-----4-4-4-4-|
Db|---9-----4-----5---------|---7-----2-----4---------|---9-----4-----5---------|---7-----2-----4-4-4-4-4-|
Ab|-7-----2-----3-----------|-5-----0-----2-----------|-7-----2-----3-----------|-5-----0-----2---2-2-2-2-|
Db|-------------------------|-------------------------|-------------------------|-------------------------|
  | pm. . . . . . . .  . . . . . . . . . . . . . . . . . . . . . . . . . . . . . . . . . . . . .          |
eb|-------------------------|-------------------------|-------------------------|-------------------------|
Bb|-------------------------|-------------------------|-------------------------|-------------------------|
Gb|-------------------------|-------------------------|-------------------------|-------------------------|
Db|-2---2-------------------|-----0-------------------|-2---2-------------------|-----0-------------------|
Ab|---2---2-2-2-3---3-------|---0---0-0-0-2---2-------|---2---2-2-2-3---3-------|---0---0-0-0-2---2---2-2-|
Db|---------------5---------|-0-------------4---------|---------------5---------|-0-------------4---------|
    Know  I     won’t  change an -  y     mind     as   long  as    they’re still chang-ing   mine

[Chorus]
eb|--------------------------------|--------------------------------|
Bb|--------------------------------|--------------------------------|
Gb|--9--9--9--4--4--4--5----(5)\---|--7--7--7--2--2--2--4----(4)\---|
Db|--9--9--9--4--4--4--5----(5)\---|--7--7--7--2--2--2--4----(4)\---|
Ab|--7--7--7--2--2--2--3----(3)\---|--5--5--5--0--0--0--2----(2)\---|
Db|--------------------------------|--------------------------------|    4x
    See      it      in        an  -  oth  -  er       light,  you’ll
    See      it      work  -  ing     out     al   -   right.   I
    Know     I       won’t  change    an   -  y        mind     as
    Long     as      they’re still    chang - ing      mine

eb|--12-12-12-7--7--7--8----(8)\---|--10-10-10-5--5--5--7----(7)\---|
Bb|--------------------------------|--------------------------------|
Gb|--------------------------------|--------------------------------|
Db|--------------------------------|--------------------------------|
Ab|--------------------------------|--------------------------------|
Db|--------------------------------|--------------------------------|
  |                                                                 |
eb|--------------------------------|--------------------------------|
Bb|--------------------------------|--------------------------------|
Gb|--9--9--9--4--4--4--5----(5)\---|--7--7--7--2--2--2--4----(4)\---|
Db|--9--9--9--4--4--4--5----(5)\---|--7--7--7--2--2--2--4----(4)\---|
Ab|--7--7--7--2--2--2--3----(3)\---|--5--5--5--0--0--0--2----(2)\---|
Db|--------------------------------|--------------------------------|    3x
    See      it      in        an  -  oth  -  er       light,  you’ll
    See      it      work  -  ing     out     al   -   right.   I
    Know     I       won’t  change    an   -  y        mind     as

eb|--12-12-12-7--7--7--8----(8)\---|--10-10-10-5--5--5--7-----5-7---|
Bb|--------------------------------|--------------------------------|
Gb|--------------------------------|--------------------------------|
Db|--------------------------------|--------------------------------|
Ab|--------------------------------|--------------------------------|
Db|--------------------------------|--------------------------------|
  |                                                                 |
eb|--------------------------------|--------------------------------|
Bb|--------------------------------|----------------------------9b--|
Gb|--9--9--9--4--4--4--5----(5)\---|--7--7--7--2--2--2--4-----------|
Db|--9--9--9--4--4--4--5----(5)\---|--7--7--7--2--2--2--4-----------|
Ab|--7--7--7--2--2--2--3----(3)\---|--5--5--5--0--0--0--2-----0-----|
Db|--------------------------------|--------------------------------|
  |                                                                 |
eb|--------------------------------|--------------------------------|
Bb|--------------------------------|--------------------------------|
Gb|--9--9--9--4--4--4--5----(5)\---|--7--7--7--2--2--2--4-----2-4---|
Db|--9--9--9--4--4--4--5----(5)\---|--7--7--7--2--2--2--4-----2-4---|
Ab|--7--7--7--2--2--2--3----(3)\---|--5--5--5--0--0--0--2-----0-2---|
Db|--------------------------------|--------------------------------|
    Long     as      they’re still    chang –  ing               mine


************************************

| x   Dead note
| (n) Ghost note
| r   Release
| b   Bend
| \   Slide down
| ~   Vibrato
| PM  Palm mute

************************************ 

            
            
Suggest correction
Creating personal tab
Creating personal tab
You can edit any tab online and save it as your Personal.

You can edit, replace or remove any tab part or add personal notes – all changes will be seen only by you.

Personal tabs can be accessed anytime from any device, even offline.
Learn more »
Give kudos to tab author, rate the tab!
1 2 3 4 5
comments
print report bad tab
guest
You may want to rate the tab now too:
select rating
Wanna post a correction for this tab? Suggest correction