Oops, an error
Loading. Please wait.

Panic Attack tab

version 2
version 2

Whole song

7 views 1 this week
no commentswrite comment
1 2 3 4 5
2 more votes to show rating
add to favorites
×
Save as Personal and add changes to this tab that will be seen only by you. Learn more ›
×
You can save this tab as Personal to edit and correct it or add notes. All changes will be seen only by you. Learn more »
launch autoscroll
font size
0
reset
how to read this tab
guitar tuner
edit
Autoscroll
slow
fast
+/-
esc
set tempo
stop
About this tab version
Based off the studio recording. Was this info helpful? Yes No
Finger Eleven
Panic Attack
Drop Db (Db,Ab,Db,Gb,Bb,Eb)
Tempo 136bpm

   [Intro]
eb|--------------------------------------|--------------------------------------|
Bb|--------------------------------------|--------------------------------------|
Gb|--4--4-----------4--4--------4--4-----|--4--4-----------4--4--------4--4-----|
Db|--------------------------------------|--------------------------------------|
Ab|--2--2-----------2--2--------2--2-----|--2--2-----------2--2--------2--2-----|
Db|--------3--------------3-----------3--|--------3--------------3-----------3--|


eb|--------------------------------------|--------------------------------------|
Bb|--------------------------------------|--------------------------------------|
Gb|--4--4-----------4--4--------4--4-----|--4--4-----------4--4-----------4--5--|
Db|--------------------------------------|-----------------------------x--------|
Ab|--2--2-----------2--2--------2--2-----|--2--2-----------2--2--------x--2--3--|
Db|--------3--------------3-----------3--|--------3--------------3--------------|


   [Verse 1]
           *              *           *           *              *           *
eb|--------------------------------------|--------------------------------------|
Bb|--------------------------------------|--------------------------------------|
Gb|--4--4-----------4--4--------4--4-----|--4--4-----------4--4--------4--4-----|
Db|--------------------------------------|--------------------------------------|
Ab|--2--2--5--------2--2--5-----2--2--5--|--2--2--5--------2--2--5-----2--2--5--|
Db|--------------------------------------|--------------------------------------|

           *              *           *           *              *
eb|--------------------------------------|--------------------------------------|
Bb|--------------------------------------|--------------------------------------|
Gb|--4--4-----------4--4--------4--4-----|--4--4-----------4--4-----------4--5--|
Db|--------------------------------------|-----------------------------x--------|
Ab|--2--2--5--------2--2--5-----2--2--5--|--2--2--5--------2--2--5-----x--2--3--|
Db|--------------------------------------|--------------------------------------|


   [Verse 2]
eb|--------------------------------------|---------------------------------------|
Bb|--------------------------------------|---------------------------------------|
Gb|--16-16----------16-16-------16-16----|--16-16----------16-16-------16-16-----|
Db|--------------------------------------|---------------------------------------|
Ab|--14-14----------14-14-------14-14----|--14-14----------14-14-------14-14-----|
Db|--------15--------------15---------15-|--------15-------------15----------15--|
  |                                                                              |
eb|--------------------------------------|---------------------------------------|
Bb|--------------------------------------|---------------------------------------|
Gb|--4--4-----------4--4--------4--4-----|--4--4-----------4--4--------4--4------|
Db|--------------------------------------|---------------------------------------|
Ab|--2--2-----------2--2--------2--2-----|--2--2-----------2--2--------2--2------|
Db|--------3--------------3-----------3--|--------3--------------3-----------3---|


eb|--------------------------------------|---------------------------------------|
Bb|--------------------------------------|---------------------------------------|
Gb|--16-16----------16-16-------16-16----|--16-16----------16-16----------16-17--|
Db|--------------------------------------|-----------------------------x---------|
Ab|--14-14----------14-14-------14-14----|--14-14----------14-14-------x--14-15--|
Db|--------15--------------15---------15-|--------15-------------15--------------|
  |                                                                              |
eb|--------------------------------------|---------------------------------------|
Bb|--------------------------------------|---------------------------------------|
Gb|--4--4-----------4--4--------4--4-----|--4--4-----------4--4-----------4--5---|
Db|--------------------------------------|-----------------------------x---------|
Ab|--2--2-----------2--2--------2--2-----|--2--2-----------2--2--------x--2--3---|
Db|--------3--------------3-----------3--|--------3--------------3---------------|


   [Pre-Chorus]
eb|------------------------------|--------------------------|
Bb|------------------------------|--------------------------|
Gb|--9--7--9--------9--10-7------|--9--7--9----9--10-7------|
Db|------------------------------|--------------------------|
Ab|--7--5--7--------7--8--5------|--7--5--7----7--8--5------|
Db|------------------------------|--------------------------|
                                                           3x

eb|------------------------------|---------------------------|
Bb|------------------------------|--------------10-----------|
Gb|--9--7--9--------9--10-7------|--10----12-------------12--|
Db|------------------------------|-----------------10-12-----|
Ab|--7--5--7--------7--8--5------|---------------------------|
Db|------------------------------|---------------------------|
  |                                                          |
eb|------------------------------|---------------------------|
Bb|------------------------------|---------------------------|
Gb|------------------------------|--------------2------------|
Db|------------------------------|--3-----5--------------5---|
Ab|------------------------------|-----------------3--5------|
Db|------------------------------|---------------------------|


   [Chorus]
eb|------------------------|------------------------|--------------0---------|------------------------|
Bb|--3--3----3--3--3----3--|--3--3----3--3--3----3--|--------------1---------|------------------------|
Gb|--2--2----2--2--2----2--|--2--2----2--2--2----2--|--------------0---------|------------------------|
Db|--0--0----0--0--0----0--|--0--0----0--0--0----0--|------------------------|--------------------5---|
Ab|--0---------------------|------------------------|--3-----3---------------|--------------3--5------|
Db|--0---------------------|------------------------|--3-----3---------------|------------------------|
                                                                                                     3x

eb|------------------------|------------------------|--------------0--0--0---|--------------0--0--0---|
Bb|--3--3----3--3--3----3--|--3--3----3--3--3----3--|--------------1--1--1---|--------------1--1--1---|
Gb|--2--2----2--2--2----2--|--2--2----2--2--2----2--|--------------0--0--0---|--------------0--0--0---|
Db|--0--0----0--0--0----0--|--0--0----0--0--0----0--|------------------------|------------------------|
Ab|--0---------------------|------------------------|--3-----3---------------|--3-----3---------------|
Db|--0---------------------|------------------------|--3-----3---------------|--3-----3---------------|


   [Verse 3]
eb|--------------------------------------|---------------------------------------|
Bb|--------------------------------------|---------------------------------------|
Gb|--16-16----------16-16-------16-16----|--16-16----------16-16-------16-16-----|
Db|--------------------------------------|---------------------------------------|
Ab|--14-14----------14-14-------14-14----|--14-14----------14-14-------14-14-----|
Db|--------15--------------15---------15-|--------15-------------15----------15--|
  |                                                                              |
eb|--------------------------------------|---------------------------------------|
Bb|--------------------------------------|---------------------------------------|
Gb|--4--4-----------4--4--------4--4-----|--4--4-----------4--4--------4--4------|
Db|--------------------------------------|---------------------------------------|
Ab|--2--2-----------2--2--------2--2-----|--2--2-----------2--2--------2--2------|
Db|--------3--------------3-----------3--|--------3--------------3-----------3---|


eb|--------------------------------------|---------------------------------------|
Bb|--------------------------------------|---------------------------------------|
Gb|--16-16----------16-16-------16-16----|--16-16----------16-16----------16-17--|
Db|--------------------------------------|-----------------------------x---------|
Ab|--14-14----------14-14-------14-14----|--14-14----------14-14-------x--14-15--|
Db|--------15--------------15---------15-|--------15-------------15--------------|
  |                                                                              |
eb|--------------------------------------|---------------------------------------|
Bb|--------------------------------------|---------------------------------------|
Gb|--4--4-----------4--4--------4--4-----|--4--4-----------4--4-----------4--5---|
Db|--------------------------------------|-----------------------------x---------|
Ab|--2--2-----------2--2--------2--2-----|--2--2-----------2--2--------x--2--3---|
Db|--------3--------------3-----------3--|--------3--------------3---------------|


   [Pre-Chorus]
eb|------------------------------|--------------------------|
Bb|------------------------------|--------------------------|
Gb|--9--7--9--------9--10-7------|--9--7--9----9--10-7------|
Db|------------------------------|--------------------------|
Ab|--7--5--7--------7--8--5------|--7--5--7----7--8--5------|
Db|------------------------------|--------------------------|
                                                           3x

eb|------------------------------|---------------------------|
Bb|------------------------------|--------------10-----------|
Gb|--9--7--9--------9--10-7------|--10----12-------------12--|
Db|------------------------------|-----------------10-12-----|
Ab|--7--5--7--------7--8--5------|---------------------------|
Db|------------------------------|---------------------------|
  |                                                          |
eb|------------------------------|---------------------------|
Bb|------------------------------|---------------------------|
Gb|------------------------------|--------------2------------|
Db|------------------------------|--3-----5--------------5---|
Ab|------------------------------|-----------------3--5------|
Db|------------------------------|---------------------------|


   [Chorus]
eb|------------------------|------------------------|--------------0---------|------------------------|
Bb|--3--3----3--3--3----3--|--3--3----3--3--3----3--|--------------1---------|------------------------|
Gb|--2--2----2--2--2----2--|--2--2----2--2--2----2--|--------------0---------|------------------------|
Db|--0--0----0--0--0----0--|--0--0----0--0--0----0--|------------------------|--------------------5---|
Ab|--0---------------------|------------------------|--3-----3---------------|--------------3--5------|
Db|--0---------------------|------------------------|--3-----3---------------|------------------------|
                                                                                                     3x

eb|------------------------|------------------------|--------------0--0--0---|--------------0--0--0---|
Bb|--3--3----3--3--3----3--|--3--3----3--3--3----3--|--------------1--1--1---|--------------1--1--1---|
Gb|--2--2----2--2--2----2--|--2--2----2--2--2----2--|--------------0--0--0---|--------------0--1--0---|
Db|--0--0----0--0--0----0--|--0--0----0--0--0----0--|------------------------|------------------------|
Ab|--0---------------------|------------------------|--3-----3---------------|--3-----3---------------|
Db|--0---------------------|------------------------|--3-----3---------------|--3-----3---------------|



eb|--------------------------|-----------------------------|
Bb|--------------------------|-----------------------------|
Gb|--9--7--9--------9--10-7--|-----9--7--9----9b-----------|
Db|--------------------------|-----------------------------|
Ab|--7--5--7--------7--8--5--|-----7--5--7----7b-----------|
Db|--------------------------|-----------------------------|

eb|--------------------------|----------------------|--------------------------|----------------------|
Bb|--------------------------|----------------------|--------------------------|----------------------|
Gb|--9--7--9--------9--10-7--|-----9--7--9----9--10-|--9--7--9--------9--10-7--|-----9--7--9----9--10-|
Db|--------------------------|----------------------|--------------------------|----------------------|
Ab|--7--5--7--------7--8--5--|-----7--5--7----7--8--|--7--5--7--------7--8--5--|-----7--5--7----7--8--|
Db|--------------------------|----------------------|--------------------------|----------------------|

eb|--------------------------|----------------------|--------------------------|---------------------------|
Bb|--------------------------|----------------------|--------------------------|--------------10-----------|
Gb|--9--7--9--------9--10-7--|-----9--7--9----9--10-|--9--7--9--------9--10-7--|--10----12-------------12--|
Db|--------------------------|----------------------|--------------------------|-----------------10-12-----|
Ab|--7--5--7--------7--8--5--|-----7--5--7----7--8--|--7--5--7--------7--8--5--|---------------------------|
Db|--------------------------|----------------------|--------------------------|---------------------------|
  |                                                                                                        |
eb|--------------------------|----------------------|--------------------------|---------------------------|
Bb|--------------------------|----------------------|--------------------------|---------------------------|
Gb|--------------------------|----------------------|--------------------------|--------------2------------|
Db|--------------------------|----------------------|--------------------------|--3-----5--------------5---|
Ab|--------------------------|----------------------|--------------------------|-----------------3--5------|
Db|--------------------------|----------------------|--------------------------|---------------------------|


   [Chorus]
eb|------------------------|------------------------|--------------0---------|------------------------|
Bb|--3--3----3--3--3----3--|--3--3----3--3--3----3--|--------------1---------|------------------------|
Gb|--2--2----2--2--2----2--|--2--2----2--2--2----2--|--------------0---------|------------------------|
Db|--0--0----0--0--0----0--|--0--0----0--0--0----0--|------------------------|--------------------5---|
Ab|--0---------------------|------------------------|--3-----3---------------|--------------3--5------|
Db|--0---------------------|------------------------|--3-----3---------------|------------------------|
                                                                                                     3x

eb|------------------------|------------------------|--------------0--0--0---|--------------0--0--0---|
Bb|--3--3----3--3--3----3--|--3--3----3--3--3----3--|--------------1--1--1---|--------------1--1--1---|
Gb|--2--2----2--2--2----2--|--2--2----2--2--2----2--|--------------0--0--0---|--------------0--1--0---|
Db|--0--0----0--0--0----0--|--0--0----0--0--0----0--|------------------------|------------------------|
Ab|--0---------------------|------------------------|--3-----3---------------|--3-----3---------------|
Db|--0---------------------|------------------------|--3-----3---------------|--3-----3---------------|


eb|---------------|-----------|
Bb|---------------|-----------|
Gb|---------------|-----------|
Db|--2--0--2------|-----------|
Ab|--2--0--2------|-----------|
Db|--2--0--2------|--X\X\X\X--|
                     pick slide

   [Verse 4]
eb|--------------------------------------|---------------------------------------|
Bb|--------------------------------------|---------------------------------------|
Gb|--16-16----------16-16-------16-16----|--16-16----------16-16-------16-16-----|
Db|--------------------------------------|---------------------------------------|
Ab|--14-14----------14-14-------14-14----|--14-14----------14-14-------14-14-----|
Db|--------15--------------15---------15-|--------15-------------15----------15--|
  |                                                                              |
eb|--------------------------------------|---------------------------------------|
Bb|--------------------------------------|---------------------------------------|
Gb|--4--4-----------4--4--------4--4-----|--4--4-----------4--4--------4--4------|
Db|--------------------------------------|---------------------------------------|
Ab|--2--2-----------2--2--------2--2-----|--2--2-----------2--2--------2--2------|
Db|--------3--------------3-----------3--|--------3--------------3-----------3---|


eb|--------------------------------------|---------------------------------------|
Bb|--------------------------------------|---------------------------------------|
Gb|--16-16----------16-16-------16-16----|--16-16----------16-16----------16-17--|
Db|--------------------------------------|-----------------------------x---------|
Ab|--14-14----------14-14-------14-14----|--14-14----------14-14-------x--14-15--|
Db|--------15--------------15---------15-|--------15-------------15--------------|
  |                                                                              |
eb|--------------------------------------|---------------------------------------|
Bb|--------------------------------------|---------------------------------------|
Gb|--4--4-----------4--4--------4--4-----|--4--4-----------4--4-----------4--5---|
Db|--------------------------------------|-----------------------------x---------|
Ab|--2--2-----------2--2--------2--2-----|--2--2-----------2--2--------x--2--3---|
Db|--------3--------------3-----------3--|--------3--------------3---------------|
                                                                                2X


************************************

| x   Dead note
| b   Bend
| *   Harmonic

************************************


            
            
Suggest correction
Creating personal tab
Creating personal tab
You can edit any tab online and save it as your Personal.

You can edit, replace or remove any tab part or add personal notes – all changes will be seen only by you.

Personal tabs can be accessed anytime from any device, even offline.
Learn more »
Give kudos to tab author, rate the tab!
1 2 3 4 5
comments
print report bad tab
guest
You may want to rate the tab now too:
select rating
Wanna post a correction for this tab? Suggest correction