Oops, an error
Loading. Please wait.

Paralyzer Bass Tab

version 1
version 1
34,396 views 21 this week
7 commentsread comments
1 2 3 4 5
x 7
add to favorites
launch autoscroll
font size
0
reset
guitar tuner
Autoscroll
slow
fast
+/-
esc
set tempo
stop
Help us to improve Ultimate-Guitar.com Take our survey!
×
Difficulty
intermediate
Paralyzer by Finger Eleven
Tabbed by Colsy

I couldn't find a good version of this tab without confusing myself
so i tabbed this out. I watched the live videos on youtube then worked it out
by ear. not an easy task! After i figured it out its a pretty fun song to play.
As you can see it is played with a 5 string, but i tabbed it on a standard 4 string.
he really only uses the 5th string for slides.
Hope you enjoy it.

nb: The breakdown is very hard to hear in the recording. What I have tabbed is based on
the live videos. The upper neck parts you will have to listen to the song to really get
the timing of them. Guitar Pro takes a bit of messing around to get it exactly right!! 
was exported from Guitar Pro


     W                   W                   Q    Q    Q    Q
G||-------------------|-------------------|----------------------|
D||-------------------|-------------------|----------------------|
A||-------------------|-------------------|----------------------|
E||-------------------|-------------------|--0----0----0----0----|
B||-------------------|-------------------|----------------------|


  Q    Q    Q    E  E     Q    Q    Q    Q       Q    Q    Q    Q
-----------------------|----------------------|----------------------|
-----------------------|----------------------|----------------------|
-----------------------|----------------------|----------------------|
--0----0----0----0--3--|--5----5----5----5----|--3----3----3----3----|
-----------------------|----------------------|----------------------|


  Q    Q    Q    Q       Q    Q    Q    E  E     E  E  E  Q    Q    E
----------------------|-----------------------|------------------------|
----------------------|-----------------------|------------------------|
----------------------|-----------------------|------------------------|
--0----0----0----0----|--0----0----0----0--3--|--5--5--5--5----5----5--|
----------------------|-----------------------|------------------------|


  E  E  Q    Q    Q       W                   W
-----------------------|-------------------|-------------------|
-----------------------|-------------------|-------------------|
-----------------------|-------------------|-------------------|
--3--3--3----3----3----|-------------------|-------------------|
-----------------------|-------------------|-------------------|


  W                   H        Q     Q        Q    E  E    E   E   E   E
-------------------|-----------------------|------------------------------|
-------------------|-----------------------|------------------------------|
-------------------|-----------------------|------------------------------|
-------------------|-----------------------|--------------17--15--14--15--|
-------------------|----------------12\----|--5----5--5/------------------|


  Q    E  E    E   E   Q       Q    Q    Q    Q       Q    E  E  E  E  Q
----------------------------|----------------------|------------------------|
----------------------------|----------------------|------------------------|
----------------------------|----------------------|------------------------|
--------------17--15--14----|--2---------2---------|--2----2--0--2-----2----|
--5----5--5/----------------|----------------------|------------------------|


  Q    E  E    E   E   E   E     Q    E  E    E   E   Q
------------------------------|----------------------------|
------------------------------|----------------------------|
------------------------------|----------------------------|
--------------17--15--14--15--|--------------17--15--14----|
--5----5--5/------------------|--5----5--5/----------------|


  Q    E  E  E  E  Q       Q    E  E  E  E  Q
------------------------|------------------------|
------------------------|------------------------|
------------------------|------------------------|
--2----2--0--2-----2----|--2----2--0--2-----2----|
------------------------|------------------------|


  Q    E  E    E   E   E   E     Q    E  E    E   E   Q
------------------------------|----------------------------|
------------------------------|----------------------------|
------------------------------|----------------------------|
--------------17--15--14--15--|--------------17--15--14----|
--5----5--5/------------------|--5----5--5/----------------|


   S  S  S  S  S  S  S  S  S S S S Q
----------------------------------------|
----------------------------------------|
--14-14-14-12-12-12-10-10-10-9-9-9------|
----------------------------------------|
----------------------------------------|


   S  S  S  S  S  S  S  S  S S S S Q       Q    Q    Q    Q
----------------------------------------|----------------------|
----------------------------------------|----------------------|
--14-14-14-12-12-12-10-10-10-9-9-9------|----------------------|
----------------------------------------|--0----0----0----0----|
----------------------------------------|----------------------|


  Q    Q    Q    E  E     Q    Q    Q    Q       Q    Q    Q    Q
-----------------------|----------------------|----------------------|
-----------------------|----------------------|----------------------|
-----------------------|----------------------|----------------------|
--0----0----0----0--3--|--5----5----5----5----|--3----3----3----3----|
-----------------------|----------------------|----------------------|


  Q    Q    Q    Q       Q    Q    Q    E  E     E  E  E  Q    Q    E
----------------------|-----------------------|------------------------|
----------------------|-----------------------|------------------------|
----------------------|-----------------------|------------------------|
--0----0----0----0----|--0----0----0----0--3--|--5--5--5--5----5----5--|
----------------------|-----------------------|------------------------|


  E  E  Q    Q    Q       W                   W
-----------------------|-------------------|-------------------|
-----------------------|-------------------|-------------------|
-----------------------|-------------------|-------------------|
--3--3--3----3----3----|-------------------|-------------------|
-----------------------|-------------------|-------------------|


  W                   H        Q     Q        Q    E  E    E   E   E   E
-------------------|-----------------------|------------------------------|
-------------------|-----------------------|------------------------------|
-------------------|-----------------------|------------------------------|
-------------------|-----------------------|--------------17--15--14--15--|
-------------------|----------------12\----|--5----5--5/------------------|


  Q    E  E    E   E   Q       Q    E  E  E  E  Q       Q    E  E  E  E  Q
----------------------------|------------------------|------------------------|
----------------------------|------------------------|------------------------|
----------------------------|------------------------|------------------------|
--------------17--15--14----|--2----2--0--2-----2----|--2----2--0--2-----2----|
--5----5--5/----------------|------------------------|------------------------|


  Q    E  E    E   E   E   E     Q    E  E    E   E   Q
------------------------------|----------------------------|
------------------------------|----------------------------|
------------------------------|----------------------------|
--------------17--15--14--15--|--------------17--15--14----|
--5----5--5/------------------|--5----5--5/----------------|


  Q    E  E  E  E  Q       Q    E  E  E  E  Q
------------------------|------------------------|
------------------------|------------------------|
------------------------|------------------------|
--2----2--0--2-----2----|--2----2--0--2-----2----|
------------------------|------------------------|


  Q    E  E    E   E   E   E     Q    E  E    E   E   Q
------------------------------|----------------------------|
------------------------------|----------------------------|
------------------------------|----------------------------|
--------------17--15--14--15--|--------------17--15--14----|
--5----5--5/------------------|--5----5--5/----------------|


   S  S  S  S  S  S  S  S  S S S S Q
----------------------------------------|
----------------------------------------|
--14-14-14-12-12-12-10-10-10-9-9-9------|
----------------------------------------|
----------------------------------------|


   S  S  S  S  S  S  S  S  S S S S Q       Q    Q    Q    Q
----------------------------------------|----------------------|
----------------------------------------|----------------------|
--14-14-14-12-12-12-10-10-10-9-9-9------|----------------------|
----------------------------------------|--0----0----0----0----|
----------------------------------------|----------------------|


  Q    Q    Q    E  E     Q    Q    Q    Q       Q    Q    Q    Q
-----------------------|----------------------|----------------------|
-----------------------|----------------------|----------------------|
-----------------------|----------------------|----------------------|
--0----0----0----0--3--|--5----5----5----5----|--3----3----3----3----|
-----------------------|----------------------|----------------------|


  Q    Q    Q    Q       Q    Q    Q    E  E     E  E  E  Q    Q    E
----------------------|-----------------------|------------------------|
----------------------|-----------------------|------------------------|
----------------------|-----------------------|------------------------|
--0----0----0----0----|--0----0----0----0--3--|--5--5--5--5----5----5--|
----------------------|-----------------------|------------------------|


  E  E  Q    Q    Q       Q.      E   S  S E   E   S  S
-----------------------|--------------------------------|
-----------------------|--------------------------------|
-----------------------|--------------------------------|
--3--3--3----3----3----|---------12--10-12----12--10-12-|
-----------------------|--5-----------------------------|


  Q.      E   S  S  Q.         Q.      E   S  S E   E   S  S
----------------------------|--------------------------------|
----------------------------|--------------------------------|
----------------------------|--------------------------------|
---------12--10-12----------|---------12--10-12----12--10-12-|
--5----------------12\------|--5-----------------------------|


  Q.      E   S  S E   E   S  S    Q.     E  S S E  E  S S
--------------------------------|--------------------------|
--------------------------------|--------------------------|
--------------------------------|---------9--7-9----9--7-9-|
---------12--10-12----12--10-12-|--2-----------------------|
--5-----------------------------|--------------------------|


  Q.     E   S S E  E  S S    Q.     E  S S E  E  S S
---------------------------|--------------------------|
---------------------------|--------------------------|
---------9--13-9----9--7-9-|---------9--7-9----9--9-9-|
--2------------------------|--2-----------------------|
---------------------------|--------------------------|


   S  S  S  S  S  S  S  S  S S S S Q       W
----------------------------------------|-------------------|
----------------------------------------|-------------------|
--14-14-14-12-12-12-10-10-10-9-9-9------|-------------------|
----------------------------------------|-------------------|
----------------------------------------|-------------------|


  W                   W                   W
-------------------|-------------------|-------------------|
-------------------|-------------------|-------------------|
-------------------|-------------------|-------------------|
-------------------|-------------------|-------------------|
-------------------|-------------------|-------------------|


  Q    Q    Q    Q       W                   Q    Q    Q    Q
----------------------|-------------------|----------------------|
----------------------|-------------------|----------------------|
----------------------|-------------------|--0----0----0---------|
--0----0----0---------|-------------------|----------------------|
----------------------|-------------------|----------------------|


  W                   Q    Q    Q    Q       E   E   E  E  Q    E   E
-------------------|----------------------|----------------------------|
-------------------|----------------------|----------------------------|
-------------------|----------------------|-----14--12----------9--10--|
-------------------|--0----0----0----0----|--0----------0--0-----------|
-------------------|----------------------|----------------------------|


  Q    Q    Q    Q       Q    Q    Q    Q       E   E   E  E  Q    E   E
----------------------|----------------------|----------------------------|
----------------------|----------------------|----------------------------|
----------------------|----------------------|-----14--12----------9--10--|
--5----5----5----5----|--3----3----3----3----|--0----------0--0-----------|
----------------------|----------------------|----------------------------|


  E   E   E  E  Q    E   E     E  E  Q    Q    E  E     E  E  Q    Q    Q
----------------------------|------------------------|-----------------------|
----------------------------|------------------------|-----------------------|
-----14--12----------9--10--|------------------------|-----------------------|
--0----------0--0-----------|--5--5--5----5----5--5--|--3--3--3----3----3----|
----------------------------|------------------------|-----------------------|


  E   E   E  E  Q    E   E     E   E   E  E  Q    E   E
----------------------------|----------------------------|
----------------------------|----------------------------|
-----14--12----------9--10--|-----14--12----------9--10--|
--0----------0--0-----------|--0----------0--0-----------|
----------------------------|----------------------------|


  Q    Q    Q    Q       Q    Q    Q    Q       E   E   E  E  Q    E   E
----------------------|----------------------|----------------------------|
----------------------|----------------------|----------------------------|
----------------------|----------------------|-----14--12----------9--10--|
--5----5----5----5----|--3----3----3----3----|--0----------0--0-----------|
----------------------|----------------------|----------------------------|


                                         W
  E   E   E  E  Q    E   E     Q    Q    Q    Q       Q    Q    Q     Q
----------------------------|----------------------|-----------------------|
----------------------------|----------------------|-----------------------|
-----14--12----------9--10--|----------------------|-----------------------|
--0----------0--0-----------|--5----5----5~~~~~----|--3----3----3////15----|
----------------------------|----------------------|-----------------------|


  H         H
---------------------||
---------------------||
---------------------||
---------------------||
--5\-----------------||


Duration Legend
---------------
W - whole
H - half
Q - quarter
E - 8th
S - 16th
T - 32nd
X - 64th
. - note dotted
|-n-|  - n-tuplets


Tablature Legend
----------------
L - tied note
x - dead note
g - grace note
(n) - ghost note
> - accentuded note
NH - natural harmonic
AH - artificial harmonic
TH - tapped harmonic
SH - semi harmonic
PH - pitch harmonic
h - hammer on
p - pull off
b - bend
br - bendRelease
pb - preBend
pbr - preBendRelease
brb - bendReleaseBend
\n/ - tremolo bar dip
\n - tremolo bar dive
-/n - tremolo bar Release up
/n\ - tremolo bar inverted dip
/n - tremolo bar return
-\n - tremolo bar Release down
S - shift slide
s - legato slide
/ -  slide into from below or out of upwards
\ -  slide into from above or out of downwards
~ - vibrato
W - wide vibrato
tr - trill
TP - tremolo picking
T - tapping
S - slap
P - pop
< - fade in
^ - brush up
v - brush down
Suggest correction
comments
print report bad tab
7 comments total. Showing first comments.
-1 reply
__Ronnie__ 999 Jun 18, 2008 06:09 PM

I think this tab hit the nail in the head.

-2 reply
keneticshark24 135 Nov 22, 2008 10:36 AM

Excellent - finally, a good bass tab of this song. Great work!

+1 reply
keneticshark24 135 Jan 09, 2009 06:47 AM

Actually, seems a bit..off..Hrm. DD:

guest
You may want to rate the tab now too:
select rating
Wanna post a correction for this tab? Suggest correction