Oops, an error
Loading. Please wait.

Paralyzer intro tab

version 1
version 1

Intro

Whole song

34,831 views 3 this week
2 commentsread comments
1 2 3 4 5
x 5
add to favorites
×
Save as Personal and add changes to this tab that will be seen only by you. Learn more ›
×
You can save this tab as Personal to edit and correct it or add notes. All changes will be seen only by you. Learn more »
launch autoscroll
font size
0
reset
how to read this tab
guitar tuner
backing track
0:00
0:00
edit
Autoscroll
slow
fast
+/-
esc
set tempo
stop
Difficulty
opens with this:

---7~---------|
---8~---------|
---9~---------|
---9~---------|
---7~---------|
---0~---------|


intro/chorus:
----------------------------------------------------------|
----------------------------------------------------------|
-----/16------14------12------11-----11-11---11-11--------|
------x-------x-------x-------x------x--x----x--x---------|
-----/14------12------10------9------9--9----9--9---------|
--0-------------------------------------------------------|

----------------------------------------------------------|
----------------------------------------------------------|
-----/16------14------12------11-----11-11---11-11--------|
------x-------x-------x-------x------x--x----x--x---------|
-----/14------12------10------9------9--9----9--9---------|
--0-------------------------------------------------------|

----------------------------------------------------------|
----------------------------------------------------------|
-------------------16-----14-14----x-14-------------------|
--7~---------------x------x--x-----x-x--------------------|
--7~---------------14-----12-12----x-12-------------------|
--5~------------------------------------------------------|

----------------------------------------------------------|
----------------------------------------------------------|
------16------14------12------11-----11-11---11-11--------|
------x-------x-------x-------x------x--x----x--x---------|
------14------12------10------9------9--9----9--9---------|
----------------------------------------------------------|
:repeat

---7~---------|
---8~---------|
---9~---------|
---9~---------|
---7~---------|
---0~---------|

/ - slide up
x - mute string
~ - let ring


this is a pretty catchy little riff, and a wiiicked song, enjoy!
Suggest correction
Creating personal tab
Creating personal tab
You can edit any tab online and save it as your Personal.

You can edit, replace or remove any tab part or add personal notes – all changes will be seen only by you.

Personal tabs can be accessed anytime from any device, even offline.
Learn more »
comments
print report bad tab
2 comments total.
0 reply
Devilar 10 Mar 12, 2007 03:26 PM

an octav to high man

0 reply
Brammster13 10 May 07, 2008 05:47 PM

what the hell is up with this??

guest
Wanna post a correction for this tab? Suggest correction