Oops, an error
Loading. Please wait.

Paralyzer Tab

version 4
version 4
209,231 views 252 this week
51 commentsread comments
1 2 3 4 5
excellent!
x 72
add to favorites
launch autoscroll
font size
0
reset
how to read this tab
guitar tuner
Autoscroll
slow
fast
+/-
esc
set tempo
stop
Help us to improve Ultimate-Guitar.com Take our survey!
×
Contributor
bb_phobia 458
Artist:    Finger Eleven
Song:      Paralyzer 
Album:     Them vs. You vs. Me (2007)
Tabbed By: Adam Seto

***last update: aug. 8 2007--fixed whole tab. 
                                                                                         
 
  Gtr. 1 (Acoustic)
E|--------------------------|
B|--8-----------------------|
G|--9-----------------------|
D|--9-----------------------|
A|--7-----------------------|
E|--0-----------------------|
     
    Volume Swell
                                                                                         

Mid Distortion Throughout


[Intro/Main Riff]

 (x2):

(0:05)

  Gtr. 1  recorded version
E|----------------------------------------------------------------------------------------------|
B|----------------------------------------------------------------------------------------------|
G|-------------------------------------------------------------4--------------------------------|
D|-----------------------------------------------------2--2--------2--2-------------------------|
A|-----------------------------------------------------0--0-xx---x-0--0-------------------------|
E|-0-19-17-15-14-x-14-14-15--0-19-17-15-14-x-14--14-15------xx---x------19-17-15-14-x-14--14-15-|
 |
 |Gtr. 1 * live version (upper octaves are also used in recorded version)
E|----------------------------------------------------------------------------------------------|
B|----------------------------------------------------------------------------------------------|
G|-------------------------------------------------------------4--------------------------------|
D|-----------------------------------------------------2--2--------2--2-------------------------|
A|---14-12-10-9--x-9---9-10----14-12-10-9--x-9---9-10--0--0-xx---x-0--0-14-12-10--9-x-9---9-10--|
E|-0-------------------------0------------------------------------------------------------------|
 |
 |Gtr. 2
E|--7--7---7---7--7--7-7-7----7--7---7---7--7--7-7-7--------------------------------------------|
B|--8--8---8---7--7--8-8-8----8--8---8---7--7--8-8-8----------------------3-3-x-x-8-8-----------|
G|--9--9---9---9--9--9-9-9----9--9---9---9--9--9-9-9------------4---------4-4-x-x-9-9--11-11-12-|
D|--9--9---9---9--9--9-9-9----9--9---9---9--9--9-9-9----2--2-xx---x-2--2--5-5-x-x-9-9--x--x--x--|
A|--7--7---7---7--7--7-7-7----7--7---7---7--7--7-7-7----0--0-xx---x-0--0--5-5-----7-7--9--9-10--|
E|------------------------------------------------------------------------3-3-------------------|
          

                  

[Verse]

(x3):

(0:23)
  
  Gtr. 1
E|----------------------------------------------------------------------|
B|----------------------------------------------------------------------|
G|-----12-------12----------12-----12------------12--12-------12--------|
D|--14-12-14-12-12-14-12h14-12--14-12-14-12-14---12--12-12h14----12h14--|
A|----------------------------------------------------------------------| 
E|----------------------------------------------------------------------|
 | 
 |Gtr. 2 
E|----------------------------------------------------------------------|
B|--8-------------------------------------------------------------------|
G|--9-------------------------------------------------------------------|
D|--9-------------------------------------------------------------------|
A|--7-------------------------------------------------------------------|
E|----------------------------------------------------------------------|


(0:27)
                                                                     
E|----------------------------------------------------------------------|  
B|--------11-------11-------11-----------------11--------11-------11-11-| 
G|--11h12----11h12----11h12-11-----------11h12-----11h12----11h12-11-11-|
D|----------------------------------------------------------------------|
A|----------------------------------------------------------------------|
E|----------------------------------------------------------------------|
 | 
 |Gtr. 2
E|------------------------------------------------------------------|
B|--11--------------------------------------------------------------|
G|--11--------------------------------------------------------------|
D|--11--------------------------------------------------------------|
A|--9---------------------------------------------------------------|
E|------------------------------------------------------------------|
                                                                                         

[Pre-Chorus]

(0:50)

  Gtr. 1
E|----------------------------------------------------------------------|
B|----------------------------------------------------------------------|
G|-----12-------12----------12-----12------------12--12-------12--------|
D|--14-12-14-12-12-14-12h14-12--14-12-14-12-14---12--12-12h14----12h14--|
A|----------------------------------------------------------------------| 
E|----------------------------------------------------------------------|


(0:55)

  Gtr. 1 and 2
E|-----------------------------------------------------------|
B|-----------------------------------------------------------|
G|-----------------------------------------------------------|
D|-----------------------------------------------------------|
A|-------------------------x-x-x-x---------------------------|
E|--7-7-7-5-5-5-3-3-3-2-2--x-x-x-x--7-7-7-5-5-5-3-3-3-2-2----|
                                                                                         

[Chorus]

(x2)

(0:59)
 
  Gtr. 1  recorded version
E|----------------------------------------------------------------------------------------------|
B|----------------------------------------------------------------------------------------------|
G|-------------------------------------------------------------4--------------------------------|
D|-----------------------------------------------------2--2--------2--2-------------------------|
A|-----------------------------------------------------0--0-xx---x-0--0-------------------------|
E|-0-19-17-15-14-x-14-14-15--0-19-17-15-14-x-14--14-15------xx---x------19-17-15-14-x-14--14-15-|
 |
 |Gtr. 1 * live version (upper octaves are also used in recorded version)
E|----------------------------------------------------------------------------------------------|
B|----------------------------------------------------------------------------------------------|
G|-------------------------------------------------------------4--------------------------------|
D|-----------------------------------------------------2--2--------2--2-------------------------|
A|---14-12-10-9--x-9---9-10----14-12-10-9--x-9---9-10--0--0-xx---x-0--0-14-12-10--9-x-9---9-10--|
E|-0-------------------------0------------------------------------------------------------------|
 |
 |Gtr. 2
E|--7--7---7---7--7--7-7-7----7--7---7---7--7--7-7-7--------------------------------------------|
B|--8--8---8---7--7--8-8-8----8--8---8---7--7--8-8-8----------------------3-3-x-x-8-8-----------|
G|--9--9---9---9--9--9-9-9----9--9---9---9--9--9-9-9------------4---------4-4-x-x-9-9--11-11-12-|
D|--9--9---9---9--9--9-9-9----9--9---9---9--9--9-9-9----2--2-xx---x-2--2--5-5-x-x-9-9--x--x--x--|
A|--7--7---7---7--7--7-7-7----7--7---7---7--7--7-7-7----0--0-xx---x-0--0--5-5-----7-7--9--9-10--|
E|------------------------------------------------------------------------3-3-------------------|
                                                                                         

[Verse 2]

(Just gtr. 2 playing same verse chords with odd sounds)
                                                                                         

(1:44)


[Pre-Chorus]

  Gtr. 1
E|----------------------------------------------------------------------|
B|----------------------------------------------------------------------|
G|-----12-------12----------12-----12------------12--12-------12--------|
D|--14-12-14-12-12-14-12h14-12--14-12-14-12-14---12--12-12h14----12h14--|
A|----------------------------------------------------------------------| 
E|----------------------------------------------------------------------|

(1:49)

  Gtr. 1 and 2 
E|-----------------------------------------------------------|
B|-----------------------------------------------------------|
G|-----------------------------------------------------------|
D|-----------------------------------------------------------|
A|-------------------------x-x-x-x---------------------------|
E|--7-7-7-5-5-5-3-3-3-2-2--x-x-x-x--7-7-7-5-5-5-3-3-3-2-2----|
                                                                                       


[Chorus]

(x2)

(1:53)
  
  Gtr. 1  recorded version
E|----------------------------------------------------------------------------------------------|
B|----------------------------------------------------------------------------------------------|
G|-------------------------------------------------------------4--------------------------------|
D|-----------------------------------------------------2--2--------2--2-------------------------|
A|-----------------------------------------------------0--0-xx---x-0--0-------------------------|
E|-0-19-17-15-14-x-14-14-15--0-19-17-15-14-x-14--14-15------xx---x------19-17-15-14-x-14--14-15-|
 |
 |Gtr. 1 * live version (upper octaves are also used in recorded version)
E|----------------------------------------------------------------------------------------------|
B|----------------------------------------------------------------------------------------------|
G|-------------------------------------------------------------4--------------------------------|
D|-----------------------------------------------------2--2--------2--2-------------------------|
A|---14-12-10-9--x-9---9-10----14-12-10-9--x-9---9-10--0--0-xx---x-0--0-14-12-10--9-x-9---9-10--|
E|-0-------------------------0------------------------------------------------------------------|
 |
 |Gtr. 2
E|--7--7---7---7--7--7-7-7----7--7---7---7--7--7-7-7--------------------------------------------|
B|--8--8---8---7--7--8-8-8----8--8---8---7--7--8-8-8----------------------3-3-x-x-8-8-----------|
G|--9--9---9---9--9--9-9-9----9--9---9---9--9--9-9-9------------4---------4-4-x-x-9-9--11-11-12-|
D|--9--9---9---9--9--9-9-9----9--9---9---9--9--9-9-9----2--2-xx---x-2--2--5-5-x-x-9-9--x--x--x--|
A|--7--7---7---7--7--7-7-7----7--7---7---7--7--7-7-7----0--0-xx---x-0--0--5-5-----7-7--9--9-10--|
E|------------------------------------------------------------------------3-3-------------------|
                                                                                         

[Bridge]

(x2)
 
(2:12)
 
  Gtr. 3(only used in recorded version Live: Gtr. 1 plays this once and then goes to next part.)
E|----------------------------------------------------------------------|
B|----------------------------------------------------------------------|
G|-----12-------12----------12-----12------------12--12-------12--------|
D|--14-12-14-12-12-14-12h14-12--14-12-14-12-14---12--12-12h14----12h14--|
A|----------------------------------------------------------------------| 
E|----------------------------------------------------------------------|
 |               
 |Gtr. 2 (Plays on second time through) 
E|----------------------------------------------------------------------|
B|----------------------------------------------------------------------|
G|----------------------------------------------------------------------|
D|--9--7--5--4---4--4-5--------9--7--5--4---4--4-5----------------------|
A|----------------------------------------------------------------------|
E|----------------------------------------------------------------------|
 |
 |Gtr. 1 (Plays on second time through)
E|----------------------------------------------------------------------|
B|-b12r10-8--7---7--7-8-------b12r10-8--7---7--7-8----------------------|
G|----------------------------------------------------------------------|
D|----------------------------------------------------------------------|
A|----------------------------------------------------------------------|
E|----------------------------------------------------------------------|
                                                                                         

[Bridge]

(cont’d): 

(2:21)

  Gtr. 2
E|-------------------------------------------------------------------------------------|
B|-------------------------------------------------------------------------------------|
G|--3--3-----3--3------------3--3--------3--3--------3------3--3-----3--3--------------|
D|--------4--------2--2--4---------4--4--------4--4-----4---------4---------3--3--4----|
A|-------------------------------------------------------------------------------------|
E|-------------------------------------------------------------------------------------|
 |
 |Gtr. 3 
E|-------------------------------------------------------------------------------------|
B|-------------------------------------------------------------------------------------|
G|--15-15-11-15-15-------11--15-15-11-11-15-15-11-11-15-11--15-15-11-15-15-------11----|
D|-----------------14-14---------------------------------------------------14-14-------|
A|-------------------------------------------------------------------------------------|
E|-------------------------------------------------------------------------------------|

  Gtr. 1 
E|---------------------------------------------------------------------------|
B|---------------------------------------------------------------------------|
G|---------------------------------------------------------------------------|
D|---------------------------------------------------------------------------|
A|---------------------------------------------------------------------------|
E|--7--7--7--5--5--5--3--3--3--2--2------------------------------------------|
 |
 |Gtr. 1 
E|---------------------------------------------------------------------------|
B|--12-12-12-10-10-10-----------------------------11-12----------------------|
G|--------------------12-12-12-11-11-11--11-12-14----------------------------|
D|---------------------------------------------------------------------------|
A|---------------------------------------------------------------------------|
E|---------------------------------------------------------------------------|
                                                                                        

[Chorus Bridge]

(2:29) 

  Gtr. 1 (x2)
E|--7--7--7--7--7-7--7-7-7---7--7--7--7--7-7--7-7-7---9--9--9--9---9--9---9--9--9--9---|
B|--8--8--8--8--8-8--8-8-8---8--8--8--8--8-8--8-8-8---10-10-10-10--10-10--10-10-10-10--|
G|--9--9--9--9--9-9--9-9-9---9--9--9--9--9-9--9-9-9---9--9--9--9---9--9---9--9--9--9---|
D|--9--9--9--9--9-9--9-9-9---9--9--9--9--9-9--9-9-9------------------------------------|
A|--7--7--7--7--7-7--7-7-7---7--7--7--7--7-7--7-7-7------------------------------------|
E|-------------------------------------------------------------------------------------|
 |
 |(Only Play on first time through)
E|--7--7--7--7--7-7--7-7-7-------|
B|--8--8--8--8--8-8--8-8-8-------|
G|--9--9--9--9--9-9--9-9-9-------|
D|--9--9--9--9--9-9--9-9-9-------|
A|--7--7--7--7--7-7--7-7-7-------|
E|-------------------------------|


  Gtr. 1  (plays second time through)
E|----------------------------------------------------------------------------------------------|
B|----------------------------------------------------------------------------------------------|
G|-------------------------------------------------------------4--------------------------------|
D|-----------------------------------------------------2--2--------2--2-------------------------|
A|-----------------------------------------------------0--0-xx---x-0--0-------------------------|
E|-0-19-17-15-14-x-14-14-15--0-19-17-15-14-x-14--14-15------xx---x------19-17-15-14-x-14--14-15-|
                                                                                                 

[Outro Chorus] 

(x4)

(2:48)
 
  Gtr. 1  recorded version
E|----------------------------------------------------------------------------------------------|
B|----------------------------------------------------------------------------------------------|
G|-------------------------------------------------------------4--------------------------------|
D|-----------------------------------------------------2--2--------2--2-------------------------|
A|-----------------------------------------------------0--0-xx---x-0--0-------------------------|
E|-0-19-17-15-14-x-14-14-15--0-19-17-15-14-x-14--14-15------xx---x------19-17-15-14-x-14--14-15-|
 |
 |Gtr. 1 * live version (upper octaves are also used in recorded version)
E|----------------------------------------------------------------------------------------------|
B|----------------------------------------------------------------------------------------------|
G|-------------------------------------------------------------4--------------------------------|
D|-----------------------------------------------------2--2--------2--2-------------------------|
A|---14-12-10-9--x-9---9-10----14-12-10-9--x-9---9-10--0--0-xx---x-0--0-14-12-10--9-x-9---9-10--|
E|-0-------------------------0------------------------------------------------------------------|
 |
 |Gtr. 2
E|--7--7---7---7--7--7-7-7----7--7---7---7--7--7-7-7--------------------------------------------|
B|--8--8---8---7--7--8-8-8----8--8---8---7--7--8-8-8----------------------3-3-x-x-8-8-----------|
G|--9--9---9---9--9--9-9-9----9--9---9---9--9--9-9-9------------4---------4-4-x-x-9-9--11-11-12-|
D|--9--9---9---9--9--9-9-9----9--9---9---9--9--9-9-9----2--2-xx---x-2--2--5-5-x-x-9-9--x--x--x--|
A|--7--7---7---7--7--7-7-7----7--7---7---7--7--7-7-7----0--0-xx---x-0--0--5-5-----7-7--9--9-10--|
E|------------------------------------------------------------------------3-3-------------------|   
                                                                                        

END



************************************

| x  Dead note
| h  Hammer-on
| r  Release
| b  Bend

************************************
Suggest correction new What's this?
You can suggest a correction to this tab. Community and Mods will review your correction and vote to approve or reject it.
comments
print report bad tab
51 comments total. Showing first comments.
0 reply
bb_phobia 458 wrote on July 2 2007, 04:56 pm

don't rate until you make your necessary suggestions. I still nedd to make alot of changes.

0 reply
bb_phobia 458 wrote on July 2 2007, 04:56 pm

*need

0 reply
bb_phobia 458 wrote on July 2 2007, 04:58 pm

I'm sending my edited version. It will include timing from the song.

guest
You may want to rate the tab now too:
select rating
Please do not post tabs as comments. Select "correction" instead!