Oops, an error
Loading. Please wait.

Slow Chemical Tab

version 2
version 2

Whole song

Interactive

9,940 views 9 this week
2 commentsread comments
1 2 3 4 5
x 7
add to favorites
launch autoscroll
font size
0
reset
how to read this tab
guitar tuner
Autoscroll
slow
fast
+/-
esc
set tempo
stop
Help us to improve Ultimate-Guitar.com Take our survey!
×
Author
Drop Db


Intro

Gtr. 1

E|---------------------------------------------------------------------|
B|-(3)-----------------------------------------------------------------|
G|--2----------------------------------(6666-6666--6--6666-6666-66)----|
D|--0----------------8------------------6666-6666--7--6666-6666-77-----|
A|--0----------------8------------------4444-4444--4--4444-4444-44-----|
D|--0----------------8-------------(4)--4444-4444--4--4444-4444-44-----|

Gtr. 2

E|-----------------------------------------------------------------------|
B|---------5b---------------5b-------------------------------------------|
G|---------------------------------------(6666-6666--6--6666-6666-66)----|
D|----------------------------------------6666-6666--7--6666-6666-77-----|
A|----------------------------------------4444-4444--4--4444-4444-44-----|
D|----------------------------------------4444-4444--4--4444-4444-44-----|

Verse

Gtr. 1

E|--------------------------------------------------|
B|--------------------------------------------------|
G|--------------------------------------------------|
D|-----7777?-7555---5----------7-------5------7b\---|
A|-----8888?-8777---7---------------8---------------|
D|--(0)----(0)-------------5------------------------|

Gtr. 2
*let the G chord at the end ring while guitar one picks a G chord
E|-------------------------------------|
B|-------------------------------------|
G|-------------------------------------|
D|-----7777-----7555----5-------5------|
A|-----8888-----8777----7-------5------|
D|-(0)------0)------------------5------|

You play this part way through the verse, it?s just the first two chords or the intro
Gtr. 1
E|--------------------------------------------------------|------------------------|
B|--(3)--------------------------(3)----------------------|------------------------|
G|---2----------------------------2-----------------------|------------------------|
D|---0-------------8--------------0------------8----------|---7--------5------7b\--|
A|---0-------------8--------------0------------8----------|------8-----------------|
D|---0-------------8--------------0------------8----------|-5----------------------|

Gtr. 2
E|-----------------------------------------------------------|
B|--------5b------------5b-------------5b-----------5b-------|
G|-----------------------------------------------------------|
D|-----------------------------------------------------------|
A|-----------------------------------------------------------|
D|-----------------------------------------------------------|

Play this just before going into the chorus
Gtr. 1 ( I got Gtr. 1's part from Strait's tab. So I'm not taking credit for this little 
that Gtr. 1 plays. Thanks Strait)
E|------------------------------|
B|------------------------------|
G|------------------------------|
D|---------------7\-------------|
A|------7--8--10----------------|
D|---8--------------------------|

Gtr. 2
E|---------------------------------------------------|
B|---------------------------------------------------|
G|---------------------------------------------------|
D|---8-8-8-8-8-8-8-8-8-8-8-8-8-8-8-8-----------------|
A|---8-8-8-8-8-8-8-8-8-8-8-8-8-8-8-8-----------------|
D|---8-8-8-8-8-8-8-8-8-8-8-8-8-8-8-8-----------------|
     Pm ? ? ? ? ? ?          (lift off gradually)

Chorus
*Both guitars play the same thing
E|------------------------------------------------------------------------|
B|------------------------------------------------------------------------|
G|------------------------------------------------------------------------|
D|------7777-----7555-------5---------8--8--8-8------8-777--------7-------|
A|------8888-----8777-------7---------10101010------10-888--------8-------|
D|--(0)------(0)------(0)(0)-----(0)-----------(0)---------(0)(0)---------|

Interlude

Gtr. 1
E|----------------------------------------------------------|
B|----------------------------------------------------------|
G|----------------------------------------------------------|
D|---55555555---8-8--8--8-8-8--8------33333333-22222222-----|
A|---77777777---1010101010101010------33333333-22222222-----|
D|------------------------------------33333333-22222222-----|


Gtr. 2
E|---------------------------------------------------------------------------|
B|---------------------------------------------------------------------------|
G|---------------------------------------------------------------------------|
D|--55555555--8--8--8-8-8--8-8----77777777-55555555--------------------------|
A|--77777777--1010101010101010----88888888-77777777--------------------------|
D|---------------------------------------------------------------------------|

Guitar two plays this during the last chorus
E|-----------------------------------------------------------|
B|---5b----5b---5b----5b----5b----5b----5b----5b-------------|
G|-----------------------------------------------------------|
D|-----------------------------------------------------------|
A|-----------------------------------------------------------|
D|-----------------------------------------------------------|

Song ends on this chord
E|-------------------------|
B|-------------------------|
G|-------------------------|
D|----0--------------------|
A|----0--------------------|
D|----0--------------------|
Suggest correction
comments
print report bad tab
2 comments total.
0 reply
Smashed Pumpkin 112 May 10, 2008 02:57 PM

Hooray, atleast you put the second guitar bit in.. unlike other people.. nice one.

+1 reply
TheRawr 30 Jun 06, 2009 06:27 PM

Those 5bs are trills...

guest
You may want to rate the tab now too:
select rating
Wanna post a correction for this tab? Suggest correction