Oops, an error
Loading. Please wait.

Stay In Shadow tab

version 3
version 3

Whole song

Interactive

13 views 1 this week
no commentswrite comment
1 2 3 4 5
3 more votes to show rating
add to favorites
×
Save as Personal and add changes to this tab that will be seen only by you. Learn more ›
×
You can save this tab as Personal to edit and correct it or add notes. All changes will be seen only by you. Learn more »
launch autoscroll
font size
0
reset
how to read this tab
guitar tuner
edit
Autoscroll
slow
fast
+/-
esc
set tempo
stop
Finger Eleven
Stay in Shadow
Drop Db (Db,Ab,Db,Gb,Bb,Eb)
Tempo 80bpm

[Intro]
eb|--------------------------------------|
Bb|--------------------------------------|
Gb|-------7-/-9----9-/-10----------------|
Db|---------------------------10-10-7----|
Ab|-------5-/-7----7-/-8---x--8--8--5----|
Db|--0---------------------x--8--8--5----|
                                       4x

[Verse 1]
    Harm.
eb|---------------------------------------------------------------|
Bb|--5------------------------------------------------------------|
Gb|--5------------------------------------------------------------|
Db|---------------------------------------------------------------|
Ab|---------------------------------------------------------------|
Db|---------------------------------------------------------------|
     So cold that you cannot cope with a broken heart

eb|---------------------------------------------------------------|
Bb|---------------------------------------------------------------|
Gb|---------------------------------------------------------------|
Db|---------------------------------------------------------------|
Ab|---------------------------------------------------------------|
Db|------------------1---1-1-1----1-1-1--1-1-1-1------------------|
    I guess we blow     apart,  I      guessed it from the start

[Chorus]
eb|-------------------------------------------------------------|
Bb|-----------------------0-------------------------------------|
Gb|----------3------------2----------2-------2-------2-------2--|
Db|----------0--------------------------------------------------|
Ab|-------------------------------------------------------------|
Db|--1-1-1-1------3-3-3-3------5-5-5---5-5-5---5-5-5---5-5-5----|


eb|-------------------------------------------------------------|
Bb|-----------------------0-------------------------------------|
Gb|----------3------------2----------2-------2-------3-------2--|
Db|----------0--------------------------------------------------|
Ab|-------------------------------------------------------------|
Db|--1-1-1-1------3-3-3-3------5-5-5---5-5-5---5-5-5---5-5-5----|
                                                               2x

eb|-----------------------------------------------------------|
Bb|-----------------------0-----------------------------------|
Gb|----------3------------2----------2-------2----------------|
Db|----------0------------------------------------------------|
Ab|--------------------------------------------5-5-5---5-5-5--|
Db|--1-1-1-1------3-3-3-3------5-5-5---5-5-5---5-5-5---5-5-5--|

[Verse 2]
eb|-----------------------------|---------------------------------|
Bb|-----------------------------|---------------------------------|
Gb|-----------------------------|---------------------------------|
Db|--------------------10-10-7--|--------------------10-10-7-7-7--|
Ab|-------5h7----7h8-0-8--8--5--|-------5h7----7h8-0-8--8--5-5-5--|
Db|--0-----------------8--8--5--|--0-----------------8--8--5-5-5--|
     Pm ...................... 3x  pm .................... 

eb|--------------------------------------|----------------------------------------------|
Bb|--------------------------------------|----------------------------------------------|
Gb|-------7-/-9----9-/-10----------------|-------7-/-9----9-/-10------------------------|
Db|---------------------------10-10-7----|--------------------------10-10-10-10---------|
Ab|-------5-/-7----7-/-8---x--8--8--5----|-------5-/-7----7-/-8---x-8--8--8--8----------|
Db|--0---------------------x--8--8--5----|--0---------------------x-8--8--8--8--5-5-5\--|
                                       3x

[Chorus]
eb|-------------------------------------------------------------|
Bb|-----------------------0-------------------------------------|
Gb|----------3------------2----------2-------2-------2-------2--|
Db|----------0--------------------------------------------------|
Ab|-------------------------------------------------------------|
Db|--1-1-1-1------3-3-3-3------5-5-5---5-5-5---5-5-5---5-5-5----|


eb|-------------------------------------------------------------|
Bb|-----------------------0-------------------------------------|
Gb|----------3------------2----------2-------2-------3-------2--|
Db|----------0--------------------------------------------------|
Ab|-------------------------------------------------------------|
Db|--1-1-1-1------3-3-3-3------5-5-5---5-5-5---5-5-5---5-5-5----|
                                                               2x

eb|-------------------------------------------------------------|
Bb|-----------------------0-------------------------------------|
Gb|----------3------------2----------2-------2------------------|
Db|----------0--------------------------------------------------|
Ab|--------------------------------------------5-5-5-5-5-5-5-5--|
Db|--1-1-1-1------3-3-3-3------5-5-5---5-5-5---5-5-5-5-5-5-5-5--|

[Bridge]
eb|-----------------------------------------------------------------------------------|
Bb|-----------------------------------------------------------------------------------|
Gb|--3--------3--------3------------------------------7-\-5-----5------9-\-7-----7----|
Db|--3--------3--------3---3--------3--------3----------------------------------------|
Ab|--1--------1--------1---3--------3--------3--------5-\-3--x--3------7-\-5--x--5----|
Db|------------------------3--------3--------3-----0---------x------0---------x-------|
     Light is leav -  ing  as  I   watch   you    go                                3x
     Light is leav -  ing  inside   of       my   soul
     Light is leav -  ing  as  I   watch   you    go

eb|-----------------------------------------------|
Bb|-----------------------------------------------|
Gb|--3--------3--------3--------------------------|
Db|--3--------3--------3---3--------3--------3----|
Ab|--1--------1--------1---3--------3--------3----|
Db|------------------------3--------3--------3----|
     Light is leav -  ing  inside   of       my

                                                             Gradual slides
eb|------------------------------------------------------------------------------------------|
Bb|------------------------------------------------------------------------------------------|
Gb|----------------------------------------------------------3--//-7--//--10--//--12----/10--|
Db|------------------------------------------------------------------------------------------|
Ab|-------------------------------------------------12\--------------------------------------|
Db|-------------------------------------------------12\--------------------------------------|
  |                                                                                          |
eb|------------------------------------------------------------------------------------------|
Bb|------------------------------------------------------------------------------------------|
Gb|------------------------------3--3-3-3-3-3------------------------------------------------|
Db|--5--5-5-5-5-5--1--1-1-1-1-1--3--3-3-3-3-3--3--3-3-3-3-3--1--1-1-1-1-1-1-1-1-1-1-1-1--1---|
Ab|--5--5-5-5-5-5--1--1-1-1-1-1--1--1-1-1-1-1--3--3-3-3-3-3--1--1-1-1-1-1-1-1-1-1-1-1-1--1---|
Db|--5--5-5-5-5-5--1--1-1-1-1-1----------------3--3-3-3-3-3--1--1-1-1-1-1-1-1-1-1-1-1-1--1---|
     soul

[Solo] 
FYI: lead and rhythm dont line up together exactly...
eb|------------------------------------|------------------------------------|
Bb|--10~~~~~~~~-------13\10---13\10\8--/--10~~~~~~~~---------------6-6-6/8--|
Gb|------------------------------------|------------------------/5----------|
Db|------------------------------------|------------------------------------|
Ab|------------------------------------|------------------------------------|
Db|------------------------------------|------------------------------------|
  |                                                                         |
eb|------------------------------------|------------------------------------|
Bb|------------------------------------|------------------------------------|
Gb|-------7-/-9----9-/-10--------------|-------7-/-9----9-/-10--------------|
Db|---------------------------10-10-7--|---------------------------10-10-7--|
Ab|-------5-/-7----7-/-8---x--8--8--5--|-------5-/-7----7-/-8---x--8--8--5--|
Db|--0---------------------x--8--8--5--|--0---------------------x--8--8--5--|


eb|------------------------------------|------------------------------------|
Bb|---8/10---------------/10-13-10/13--\--10~~~~~~--------------------------|
Gb|--------10~~~~~~~-------------------|--------------------10-10/12-10/12--|
Db|------------------------------------|--------------------10-10/12-10/12--|
Ab|------------------------------------|------------------------------------|
Db|------------------------------------|------------------------------------|
  |                                                                         |
eb|------------------------------------|------------------------------------|
Bb|------------------------------------|------------------------------------|
Gb|-------7-/-9----9-/-10--------------|-------7-/-9----9-/-10--------------|
Db|---------------------------10-10-7--|---------------------------10-10-7--|
Ab|-------5-/-7----7-/-8---x--8--8--5--|-------5-/-7----7-/-8---x--8--8--5--|
Db|--0---------------------x--8--8--5--|--0---------------------x--8--8--5--|


eb|----------------------------/13-10--|-------------------------------------|
Bb|--/10~~~~~~~~------10-10-10---------|--10~~~~~~~~--------------13\10------|
Gb|------------------------------------|--10~~~~~~~~---/10--10-10-------12/--|
Db|------------------------------------|-------------------------------------|
Ab|------------------------------------|-------------------------------------|
Db|------------------------------------|-------------------------------------|
  |                                                                          |
eb|------------------------------------|-------------------------------------|
Bb|------------------------------------|-------------------------------------|
Gb|------------------------------------|-------7-/-9----9-/-10---------------|
Db|---------------------------10-10-7--|---------------------------10-10-7---|
Ab|--0----------0----------x--8--8--5--|-------5-/-7----7-/-8---x--8--8--5---|
Db|--0----------0----------x--8--8--5--|--0---------------------x--8--8--5---|


eb|------------------------------------|--------------13\---------------12\--|
Bb|--/10------------13-13-13-13\10-10--|--10-----------------------10--------|
Gb|------------10~~~-------------------|-------------------------------------|
Db|------------------------------------|-------------------------------------|
Ab|------------------------------------|-------------------------------------|
Db|------------------------------------|-------------------------------------|
  |                                                                          |
eb|------------------------------------|-------------------------------------|
Bb|------------------------------------|-------------------------------------|
Gb|------------------------------------|-------7-/-9----9-/-10---------------|
Db|---------------------------10-10-7--|---------------------------10-10-7---|
Ab|-------------0----------x--8--8--5--|-------5-/-7----7-/-8---x--8--8--5---|
Db|--0----------0----------x--8--8--5--|--0---------------------x--8--8--5---|

[Chorus]
eb|--10---(10)\-------------------------------------------------|
Bb|-------------------------------------------------------------|
Gb|-------------------------------------------------------------|
Db|-------------------------------------------------------------|
Ab|-------------------------------------------------------------|
Db|-------------------------------------------------------------|
  |                                                             |
eb|-------------------------------------------------------------|
Bb|-------------------------------------------------------------|
Gb|----------------------------------2-------2-------2-------2--|
Db|-------------------------------------------------------------|
Ab|-------------------------------------------------------------|
Db|--1-1-1--------3-3-3--------5-5-5---5-5-5---5-5-5---5-5-5----|


eb|-------------------------------------------------------------|
Bb|-------------------------------------------------------------|
Gb|----------------------------------2-------2-------3-------2--|
Db|-------------------------------------------------------------|
Ab|-------------------------------------------------------------|
Db|--1-1-1--------3-3-3--------5-5-5---5-5-5---5-5-5---5-5-5----|


eb|-------------------------------------------------------------|
Bb|-----------------------0-------------------------------------|
Gb|----------3------------2----------2-------2-------3-------2--|
Db|----------0--------------------------------------------------|
Ab|-------------------------------------------------------------|
Db|--1-1-1-1------3-3-3-3------5-5-5---5-5-5---5-5-5---5-5-5----|


eb|-------------------------------------------------------------|
Bb|-----------------------0-------------------------------------|
Gb|----------3------------2----------2-------2-------3-------2--|
Db|----------0--------------------------------------------------|
Ab|-------------------------------------------------------------|
Db|--1-1-1-1------3-3-3-3------5-5-5---5-5-5---5-5-5---5-5-5----|


eb|-------------------------------------------------------------|
Bb|-----------------------0-------------------------------------|
Gb|----------3------------2----------2-------2-------3-------2--|
Db|----------0--------------------------------------------------|
Ab|-------------------------------------------------------------|
Db|--1-1-1-1------3-3-3-3------5-5-5---5-5-5---5-5-5---5-5-5----|


eb|-----------------------------------------------------------|
Bb|-----------------------0-----------------------------------|
Gb|----------3------------2----------2-------2----------------|
Db|----------0------------------------------------------------|
Ab|--------------------------------------------5-5-5---5-5-5--|
Db|--1-1-1-1------3-3-3-3------5-5-5---5-5-5---5-5-5---5-5-5--|
 

************************************

| b  Bend
| /  Slide up
| x  Dead note
| h  Hammer-on
| \  Slide down
| ~  Vibrato
 
************************************

            
            
Suggest correction
Creating personal tab
Creating personal tab
You can edit any tab online and save it as your Personal.

You can edit, replace or remove any tab part or add personal notes – all changes will be seen only by you.

Personal tabs can be accessed anytime from any device, even offline.
Learn more »
Give kudos to tab author, rate the tab!
1 2 3 4 5
comments
print report bad tab
guest
You may want to rate the tab now too:
select rating
Wanna post a correction for this tab? Suggest correction