Oops, an error
Loading. Please wait.

The Last Scene Of Struggling tab

13 views 1 this week
no commentswrite comment
1 2 3 4 5
3 more votes to show rating
add to favorites
×
Save as Personal and add changes to this tab that will be seen only by you. Learn more ›
×
You can save this tab as Personal to edit and correct it or add notes. All changes will be seen only by you. Learn more »
launch autoscroll
font size
0
reset
how to read this tab
guitar tuner
edit
Autoscroll
slow
fast
+/-
esc
set tempo
stop
Finger Eleven
The Last Scene of Struggling
Drop Db (Db,Ab,Db,Gb,Bb,Eb)
Tempo 150bpm

[Verse 1]
eb|-------------------------|--------------------------|--------------------------|--------------------------|
Bb|-------------------------|--------------------------|--------------------------|--------------------------|
Gb|-------------------------|--------------------------|--------------------------|--------------------------|
Db|-------10-------7--------|--9-----------------------|-----------10-------7-----|-----9--------------------|
Ab|----8--------5--------7--|--------------------------|-----8--8-----5--5-----7--|--7-----------------------|
Db|-------------------------|--------------------------|--------------------------|--------------------------|
                                                                                                            2x

eb|-------------------------|--------------------------|--------------------------|--------------------------|
Bb|-------------------------|--------------------------|--------------------------|--------------------------|
Gb|-------------------------|--------------------------|--------------------------|--------------------------|
Db|-------10-------7--------|--9-----------------------|-----------10-------7-----|-----9--------------------|
Ab|----8--------5--------7--|--------------------------|-----8--8-----5--5-----7--|--7-----------------------|
Db|-------------------------|--------------------------|--------------------------|--------------------------|
  |                                                                                                          |
eb|-------------------------|------------------3-------|--------------------------|------------------7-------|
Bb|-------------------------|---------------0----------|--------------------------|---------------5----------|
Gb|-------------------------|------------4-------------|--------------------------|------------4-------------|
Db|-------------------------|--------------------------|--------------------------|--------------------------|
Ab|-------------------------|--------------------------|--------------------------|--------------------------|
Db|-------------------------|--------------------------|--------------------------|--------------------------|

eb|-------------------------|--------------------------|--------------------------|--------------------------|
Bb|-------------------------|--------------------------|--------------------------|--------------------------|
Gb|-------------------------|--------------------------|--------------------------|--------------------------|
Db|-------10-------7--------|--9-----------------------|-----------10-------7-----|-----9--------------------|
Ab|----8--------5--------7--|--------------------------|-----8--8-----5--5-----7--|--7-----------------------|
Db|-------------------------|--------------------------|--------------------------|--------------------------|
  |                                                                                                          |
eb|-------------------------|------------------3-------|--------------------------|--------------------------|
Bb|-------------------------|---------------0----------|--------------------------|--------------------------|
Gb|-------------------------|------------4-------------|--------------------------|--------------------------|
Db|-------------------------|--------------------------|--------------------------|--------------------------|
Ab|-------------------------|--------------------------|--------------------------|--------------------------|
Db|-------------------------|--------------------------|--------------------------|---------------------12\--|

   [Pre-Chorus]
eb|-------------------------|--------------------------|--------------------------|--------------------------|
Bb|-------------------------|--------------------------|--------------------------|--------------------------|
Gb|-------------------------|--------------------------|--------------------------|--------------------------|
Db|----------------0--------|--------------------------|-----------------0--------|--------------------------|
Ab|----------7--8-----------|--------------------------|-----------7--8-----------|--------------------------|
Db|-0-----------------------|--8------8--5-----5--7----|--0-----------------------|--8--8--8--5--5--5--7-----|
  |                                                                                                          |
eb|-------------------------|--------------------------|--------------------------|--------------------------|
Bb|-------------------------|--------------------------|--------------------------|--------------------------|
Gb|-------------------------|--------------------------|--------------------------|--------------------------|
Db|-------------3-----(3)\--|--------------------------|--------------3-----(3)\--|--------------------------|
Ab|-------------5-----(5)\--|--------------------------|--------------5-----(5)\--|--------------------------|
Db|-0-----------------------|--------------------------|--0-----------------------|--------------------------|
                                                                                                            2x

[Chorus]
eb|-------------------------|--------------------------|--------------------------|--------------------------|
Bb|-------------------------|--------------------------|--------------------------|--------------------------|
Gb|-5--5--5--5--5--5--5--x--|--4--4--4--4--4--4--4--x--|--------------------------|--------------------------|
Db|-------------------------|--------------------------|--------------------------|--------------------------|
Ab|-3--3--3--3--3--3--3--x--|--2--2--2--2--2--2--2--x--|--5--5--5--5--5--5--5--x--|--2--2--2--2--2--2--2--x--|
Db|-------------------------|--------------------------|--5--5--5--5--5--5--5--x--|--2--2--2--2--2--2--2--x--|

eb|-------------------------|--------------------------|--------------------------|--------------------------|
Bb|-------------------------|--------------------------|--------------------------|--------------------------|
Gb|-5--5--5--5--5--5--5--x--|--4--4--4--4--4--4--4--x--|--------------------------|--------------------------|
Db|-------------------------|--------------------------|--------------------------|--------------------------|
Ab|-3--3--3--3--3--3--3--x--|--2--2--2--2--2--2--2--x--|--5--5--5--5--5--5--5--x--|--2-----------------------|
Db|-------------------------|--------------------------|--5--5--5--5--5--5--5--x--|--2-----------------------|

   [Verse 2]
eb|-------------------------|--------------------------|--------------------------|--------------------------|
Bb|-------------------------|--------------------------|--------------------------|--------------------------|
Gb|-------------------------|--------------------------|--------------------------|--------------------------|
Db|-------10-------7--------|--9-----------------------|-----------10-------7-----|-----9--------------------|
Ab|----8--------5--------7--|--------------------------|-----8--8-----5--5-----7--|--7-----------------------|
Db|-------------------------|--------------------------|--------------------------|--------------------------|
                                                                                                            2x

eb|-------------------------|--------------------------|--------------------------|--------------------------|
Bb|-------------------------|--------------------------|--------------------------|--------------------------|
Gb|-------------------------|--------------------------|--------------------------|--------------------------|
Db|-------10-------7--------|--9-----------------------|-----------10-------7-----|-----9--------------------|
Ab|----8--------5--------7--|--------------------------|-----8--8-----5--5-----7--|--7-----------------------|
Db|-------------------------|--------------------------|--------------------------|--------------------------|
  |                                                                                                          |
eb|-------------------------|------------------3-------|--------------------------|------------------7-------|
Bb|-------------------------|---------------0----------|--------------------------|---------------5----------|
Gb|-------------------------|------------4-------------|--------------------------|------------4-------------|
Db|-------------------------|--------------------------|--------------------------|--------------------------|
Ab|-------------------------|--------------------------|--------------------------|--------------------------|
Db|-------------------------|--------------------------|--------------------------|--------------------------|

eb|-------------------------|--------------------------|--------------------------|--------------------------|
Bb|-------------------------|--------------------------|--------------------------|--------------------------|
Gb|-------------------------|--------------------------|--------------------------|--------------------------|
Db|-------10-------7--------|--9-----------------------|-----------10-------7-----|-----9--------------------|
Ab|----8--------5--------7--|--------------------------|-----8--8-----5--5-----7--|--7-----------------------|
Db|-------------------------|--------------------------|--------------------------|--------------------------|
  |                                                                                                          |
eb|-------------------------|------------------3-------|--------------------------|--------------------------|
Bb|-------------------------|---------------0----------|--------------------------|--------------------------|
Gb|-------------------------|------------4-------------|--------------------------|--------------------------|
Db|-------------------------|--------------------------|--------------------------|--------------------------|
Ab|-------------------------|--------------------------|--------------------------|--------------------------|
Db|-------------------------|--------------------------|--------------------------|---------------------12\--|

   [Pre-Chorus]
eb|-------------------------|--------------------------|--------------------------|--------------------------|
Bb|-------------------------|--------------------------|--------------------------|--------------------------|
Gb|-------------------------|--------------------------|--------------------------|--------------------------|
Db|----------------0--------|--------------------------|-----------------0--------|--------------------------|
Ab|----------7--8-----------|--------------------------|-----------7--8-----------|--------------------------|
Db|-0-----------------------|--8------8--5-----5--7----|--0-----------------------|--8--8--8--5--5--5--7-----|
  |                                                                                                          |
eb|-------------------------|--------------------------|--------------------------|--------------------------|
Bb|-------------------------|--------------------------|--------------------------|--------------------5*----|
Gb|-------------------------|--------------------------|--------------------------|--------------------5*----|
Db|-------------3-----(3)\--|--------------------------|--------------3-----(3)\--|--------------------------|
Ab|-------------5-----(5)\--|--------------------------|--------------5-----(5)\--|--------------------------|
Db|-0-----------------------|--------------------------|--0-----------------------|--------------------------|
                                                                                                            2x

   [Chorus]
eb|-------------------------|--------------------------|--------------------------|--------------------------|
Bb|-------------------------|--------------------------|--------------------------|--------------------------|
Gb|-5--5--5--5--5--5--5--x--|--4--4--4--4--4--4--4--x--|--------------------------|--------------------------|
Db|-------------------------|--------------------------|--------------------------|--------------------------|
Ab|-3--3--3--3--3--3--3--x--|--2--2--2--2--2--2--2--x--|--5--5--5--5--5--5--5--x--|--2--2--2--2--2--2--2--x--|
Db|-------------------------|--------------------------|--5--5--5--5--5--5--5--x--|--2--2--2--2--2--2--2--x--|
                                                                                                            4x
   [Bridge]
eb|-------------------------|--------------------------|--------------------------|--------------------------|
Bb|-------------------------|--------------------------|--------------------------|--------------------------|
Gb|-------------------------|--------------------------|--------------------------|--------------------------|
Db|-------------------------|--------------------------|--------------------------|--------------------------|
Ab|-------------------------|--------------------------|--------------------------|--------------------------|
Db|-0--0--0--1--2--3--------|--------------------------|--0--0--0--1--2--3--------|--------------------------|
                                                                                                            2x

eb|-------------------------|--------------------------|--------------------------|--------------------------|
Bb|-------------------------|--------------------------|--------------------------|--------------------------|
Gb|-7b--r(7)----------------|--------------------------|--7b--r(7)----------------|--------------------------|
Db|-------------------------|--------------------------|--------------------------|--------------------------|
Ab|-5b--r(5)-1--2--3--------|--------------------------|--5b--r(5)-1--2--3--------|--------------------------|
Db|----------1--2--3--------|--------------------------|-----------1--2--3--------|--------------------------|
                                                                                                           2x
[Chorus]
eb|-------------------------|--------------------------|--------------------------|--------------------------|
Bb|-------------------------|--------------------------|--------------------------|--------------------------|
Gb|-5--5--5--5--5--5--5--x--|--4--4--4--4--4--4--4--x--|--------------------------|--------------------------|
Db|-------------------------|--------------------------|--------------------------|--------------------------|
Ab|-3--3--3--3--3--3--3--x--|--2--2--2--2--2--2--2--x--|--5--5--5--5--5--5--5--x--|--2--2--2--2--2--2--2--x--|
Db|-------------------------|--------------------------|--5--5--5--5--5--5--5--x--|--2--2--2--2--2--2--2--x--|
                                                                                                            7x

eb|----------------------------|--------------------------|
Bb|--10b------10b------10b-----|--10b------10b-----(10)\--|
Gb|----------------------------|--------------------------|
Db|----------------------------|--------------------------|
Ab|----------------------------|--------------------------|
Db|----------------------------|--------------------------|
  |                                                       |
eb|----------------------------|--------------------------|
Bb|----------------------------|--------------------------|
Gb|----------------------------|--------------------------|
Db|----------------------------|--------------------------|
Ab|----0--------0--------0-----|----0---------------------|
Db|----0--------0--------0-----|----0---------------------|

************************************

| x   Dead note
| (n) Ghost note
| r   Release
| b   Bend
| \   Slide down
| *   harmonic

************************************

            
            
Suggest correction
Creating personal tab
Creating personal tab
You can edit any tab online and save it as your Personal.

You can edit, replace or remove any tab part or add personal notes – all changes will be seen only by you.

Personal tabs can be accessed anytime from any device, even offline.
Learn more »
Give kudos to tab author, rate the tab!
1 2 3 4 5
comments
print report bad tab
guest
You may want to rate the tab now too:
select rating
Wanna post a correction for this tab? Suggest correction