Oops, an error
Loading. Please wait.

Color Bass Tab

19 views 1 this week
no commentswrite comment
1 2 3 4 5
3 more votes to show rating
add to favorites
launch autoscroll
font size
0
reset
guitar tuner
Autoscroll
slow
fast
+/-
esc
set tempo
stop
Help us to improve Ultimate-Guitar.com Take our survey!
×
Author
Difficulty
intermediate
Song Structure:

     -Intro
     -Verse (No Bass)
     -Pre-Chorus
     -Chorus
     -Verse (No Bass)
     -Pre-Chorus
     -Chorus
     -Bridge
     -Chorus
     -Outro 

[Intro (Come in at 0:09]

G|---------------------------------------------------------------------------|
D|---------------------------------------------------------------------------|
A|-----------------0---0---0--------3------3---------------------------------|
E|-1------1-----------------------------------------3---3---3----------------|

G|---------------------------------------------------------------------------|
D|---------------------------------------------------------------------------|
A|---------------------------------------------------------------------------|
E|-1------1--------5---5---5--------3------3--------3---3---3----------------|

[Pre-Chorus]
G|----------------5\4\2-------------------------------5\4\2------------------|
D|------------------------/-5---------------------------------/-5\0----------|
A|---------------------------------------------------------------------------|
E|-1-1-1-1-1---------------------------1-1-1-1-1-----------------------------|

G|----------------5/4/2-------------------------------5\4\2------------------|
D|------------------------/-5---------------------------------/-5------------|
A|---------------------------------------------------------------------------|
E|-1-1-1-1-1---------------------------1-1-1-1-1-----------------------3--3--|

[Chorus]
G|---------------------------------------------------------------------------|
D|---------------------------------------------------------------------------|
A|-----------------0---0---0--------3------3---------------------------------|
E|-1------1-----------------------------------------3---3---3----------------|

G|---------------------------------------------------------------------------|
D|---------------------------------------------------------------------------|
A|---------------------------------------------------------------------------|
E|-1------1--------5---5---5--------3------3--------3---3---3----------------|

G|---------------------------------------------------------------------------|
D|---------------------------------------------------------------------------|
A|-----------------0---0---0--------3------3---------------------------------|
E|-1------1-----------------------------------------3---3---3----------------|

G|---------------------------------------------------------------------------|
D|---------------------------------------------------------------------------|
A|---------------------------------------------------------------------------|
E|-1------1--------5---5---5--------3------3--------3---3---3----------------|

[Bridge]
G|-------------------------------------------------------2-2-2h4-0-0-0h2-----|
D|-0--0--0--0h2------------------------0--0--0--0h2--------------------------|
A|---------------3--3h5------------------------------------------------------|
E|------------------------3--3h5---------------------------------------------|


G|-------------------------------------------------------2-2-2h4-0-0-0h2-----|
D|-0--0--0--0h2------------------------0--0--0--0h2--------------------------|
A|---------------3--3h5------------------------------------------------------|
E|------------------------3--3h5---------------------------------------------|

************************************

| h   Hammer-on
| /   Slide up
| \   Slide down

************************************
Suggest correction
Give kudos to tab author, rate the tab!
1 2 3 4 5
comments
print report bad tab
guest
You may want to rate the tab now too:
select rating
Wanna post a correction for this tab? Suggest correction