Oops, an error
Loading. Please wait.

Lying Through Our Teeth Chords

130 views 18 this week
no commentswrite comment
1 2 3 4 5
3 more votes to show rating
add to favorites
launch autoscroll
font size
0
reset
transpose
0
reset
display chords
guitar tuner
Autoscroll
slow
fast
+/-
esc
set tempo
stop
Help us to improve Ultimate-Guitar.com Take our survey!
×
Author
Difficulty
intermediate
Lying Through Our Teeth - Finish Ticket

Such an amazing song!
this is one of my first tabs so there might be a mistake or two, sorry


Capo: None


[Intro]

e|--------------------------------------------|
B|-----10-------------------------------------|
G|--------------9-------9-----------10--------|
D|---12--12---10-10----7-7-----10/12---12-----|  (x4)
A|--------------------------------------------|
E|--------------------------------------------|


[VERS]
Dm     C        Am     Dm
Starry eyed but not unaware
Dm     C       Am   Dm
A poor soul to fool
Dm      C             Am           Dm
Dodging streetlights, late nights, all nights
Dm      C     Am   Dm
Chasing after you


[BREAK]
Dm C Am Dm (x2)
or...
e|--------------------|
b|--------------------|
G|--------------------|
D|--------7-----------|
A|----5-8--------5----| (x2)
E|----------8-8-5-----|


[VERSE]
Dm         C          Am            Dm
You're all ears, but where are your eyes?
Dm             C        Am  Dm
The kids won't rest to your surprise
Dm        C              Am         Dm
You won't learn what you don't understand
Dm        C               Am
Slow them down but that's all


[REF]
Bb                F      C          Gm
Here we sit now lying through our teeth
              F       A          Bb
In the middle of what appears to be
                  F      C      Gm     Bbm
Something sacred, we can hardly teach

And we just can't compete


[BREAK]
Dm C Am Dm (x2)
or...
e|--------------------|
b|--------------------|
G|--------------------|
D|--------7-----------|
A|----5-8--------5----| (x2)
E|----------8-8-5-----|


[VERSE]
Dm        C        Am        Dm
We're the future, we are the cure
Dm    C       Am  Dm
A morsel of fear
Dm      C               Am         Dm
Dodging streetlights, late nights, all nights
Dm     C       Am
A product of you


[BREAK]
Dm C Am Dm (x4)
or...
e|--------------------|
b|--------------------|
G|--------------------|
D|--------7-----------|
A|----5-8--------5----| (x4)
E|----------8-8-5-----|


[REF] x2
Bb              F     C           Gm
Here we sit now lying through our teeth
              F       A          Bb
In the middle of what appears to be
                  F      C      Gm     Bbm
Something sacred, we can hardly teach
                        
And we just can't compete



[SOLO]
e|-----------------------------0---------------|
B|---------------10~--6~--3~----------1~-------|
G|----5h7-(x2)---------------2------2----------|
D|---------------------------------------------|
A|---------------------------------------------|
E|---------------------------------------------|
(or play Dm until the main melody/solo kicks in :-)


e|-----------------------8-------------------------------------------------------8---------------------------|
B|-------------------------10p8----------------------------------------------------10p8-8--6~--10~-11~-------|
G|----7h10-10p7--5--10------------7h10-10p7--5-----------------7h10-10p7--5--10------------------------------|
D|-----------------------------------------------7p5-5--7----------------------------------------------------|
A|--------------------------------------------------------8--------------------------------------------------|
E|-----------------------------------------------------------------------------------------------------------|
(or
| Bb | F | C | Gm | F | A | Bb | F | C | Gm | F | A )



[REF]
Bb               F       C           Gm
Here we sit now lying through our teeth
              F       A          Bb
In the middle of what appears to be
                  F      C      Gm      Bbm
Something sacred, we can hardly teach
                        
And we just can't compete


[OUTRO]
Dm C Am Dm (x4)



Suggest correction
Give kudos to tab author, rate the tab!
1 2 3 4 5
comments
print report bad tab
guest
You may want to rate the tab now too:
select rating
Wanna post a correction for this tab? Suggest correction