Oops, an error
Loading. Please wait.

This Is The Thing Tab

version 3
version 3

Whole song

by Fink
24,997 views 57 this week
3 commentsread comments
1 2 3 4 5
excellent!
x 15
add to favorites
launch autoscroll
font size
0
reset
how to read this tab
guitar tuner
Tab Pro tools
  • play this tab
  • loop segment
  • change instrument
  • show fretboard
  • metronome
×
Best way to learn
"This Is The Thing"
Autoscroll
slow
fast
+/-
esc
set tempo
stop
Contributor
Difficulty
Tuning
intermediate
D A D G B E
Tabbed by: seanrich944
email: richards.sean.a@gmail.com
album version

THIS IS THE FULL SONG INCLUDING THE OUTRO!!!

Note: some people use a double drop D tuning. On the album version it is 
apparent that he does not use that string so for this tab I will not use it 
either.

To make it a little less cramped and more visually appealing I split up each
 individual section of the riffs. Hope it helps.

Rhythm: notice the awkward rhythm. Helps to use your thumb for the 1st and
    2nd strings, then pluck the 3rd and 4th with your index and middle 
fingers. Takes a good amount of practice to get this rhythm down. Watch his
 video on youtube of him explaining the song and it'll help.

Intro - fades in
e|------------------------------------------------------------|
B|------------------------------------------------------------|
G|/7----7---7----7---7----7---7----7--------------------------| \
D|-0----0---0----0---0----0---0----0--------------------------|  \
A|/8--8--8--8--8--8--8--8--8--8--8--8-------------------------|   \
D|/8--8--8--8--8--8--8--8--8--8--8--8-------------------------|    \
                                                                    \
e|------------------------------------------------------------|      \ 
B|------------------------------------------------------------|       \
G|-7----7---7----7---7----7---7----7--------------------------|        repeat
D|-0----0---0----0---0----0---0----0--------------------------|       /
A|/9--9--9--9--9--9--9--9--9--9--9--9-------------------------|      /
D|/9--9--9--9--9--9--9--9--9--9--9--9-------------------------|     /
                                                                   /
e|------------------------------------------------------------|   /
B|------------------------------------------------------------|  /
G|\2----2---2----2--------------------------------------------| /
D|-0----0---0----0--------------------------------------------|  
A|\3--3--3--3--3--3-------------------------------------------|
E|\3--3--3--3--3--3-------------------------------------------|

e|------------------------------------------------------------|
B|------------------------------------------------------------|
G|/4----4---4----4--------------------------------------------|
D|-0----0---0----0---0----0---0----0---0----0---0----0--------|
A|/5--5--5--5--5--5--5--5--5--5--5--5--5--5--5--5--5--5-------|
D|/5--5--5--5--5--5--0--0--0--0--0--0--0--0--0--0--0--0-------|


Verse
      and I don't know if you...      ...different...
e|--------------------------------------------------------------------------|
B|--------------------------------------------------------------------------|
G|--------------------------------------------------------------------------|
D|-0----0---0----0---0----0---0----0---0----0---0----0---0----0---0----0----|
A|-5--5--5--5--5--5--5--5--5--5--5--5--5--5--5--5--5--5--5--5--5--5--5--5---|
D|-0--0--0--0--0--0--0--0--0--0--0--0--5--5--5--5--5--5--5--5--5--5--5--5---|

      it's getting dark...
e|------------------------------------------------------------|
B|------------------------------------------------------------|
G|-7----7---7----7---7----7---7----7--------------------------|
D|-0----0---0----0---0----0---0----0--------------------------|
A|/9--9--9--9--9--9--9--9--9--9--9--9-------------------------|
D|/9--9--9--9--9--9--9--9--9--9--9--9-------------------------|

   nights are... long...
e|------------------------------------------------------------|
B|------------------------------------------------------------|
G|------------------------------------------------------------|
D|-0----0---0----0---0----0---0----0--------------------------|
A|\5--5--5--5--5--5-/9--9--9--9--9--9-------------------------|
D|\5--5--5--5--5--5--0--0--0--0--0--0-------------------------|

      and i don't know...              ...at all...       ...that i'm...
e|------------------------------------------------------------------------|
B|------------------------------------------------------------------------|
G|------------------------------------------------------------------------|
D|-0----0---0----0---0----0---0----0---0----0---0----0---0----0---0----0--|
A|-9--9--9--9--9--9--9--9--9--9--9--9-\5--5--5--5--5--5--5--5--5--5--5--5-|
D|-0--0--0--0--0--0--0--0--0--0--0--0-\5--5--5--5--5--5--5--5--5--5--5--5-|

         ...long gone
e|------------------------------------------------------------------------|
B|------------------------------------------------------------------------|
G|-7----7---7----7---7----7---7----7--------------------------------------|
D|-0----0---0----0---0----0---0----0---0----0---0----0---0----0---0----0--|
A|/9--9--9--9--9--9--9--9--9--9--9--9-\5--5--5--5--5--5-/9--9--9--9--9--9-|
D|/9--9--9--9--9--9--9--9--9--9--9--9-\5--5--5--5--5--5--0--0--0--0--0--0-|

Pre-chorus
                ...and the things  ...apart        ...alive
e|------------------------------------------------------------------------|
B|------------------------------------------------------------------------|
G|-7----7---7----7---7----7---7----7--------------------------------------|
D|-0----0---0----0---0----0---0----0---0----0---0----0---0----0---0----0--|
A|-9--9--9--9--9--9--9--9--9--9--9--9-\5--5--5--5--5--5-/9--9--9--9--9--9-|
D|-9--9--9--9--9--9--9--9--9--9--9--9-\5--5--5--5--5--5--0--0--0--0--0--0-|

                ...and the things  ...alive        ...alone
e|------------------------------------------------------------------------|
B|------------------------------------------------------------------------|
G|-7----7---7----7---7----7---7----7--------------------------------------|
D|-0----0---0----0---0----0---0----0---0----0---0----0--------------------|
A|-9--9--9--9--9--9--9--9--9--9--9--9-\5--5--5--5--5--5-------------------|
D|-9--9--9--9--9--9--9--9--9--9--9--9-\5--5--5--5--5--5-------------------|

Chorus

e|------------------------------------------------------------|
B|------------------------------------------------------------|
G|-2----2---2----2---7----7---7----7--\2----2---2----2--------|
D|-0----0---0----0---0----0---0----0---0----0---0----0--------|
A|-0--0--0--0--0--0--9--9--9--9--9--9-\3--3--3--3--3--3-------|
D|-0--0--0--0--0--0--9--9--9--9--9--9-\3--3--3--3--3--3-------|

e|------------------------------------------------------------|
B|------------------------------------------------------------|
G|/7----7---7----7---7----7---7----7---7----7---7----7--------|
D|-0----0---0----0---0----0---0----0---0----0---0----0--------|
A|/8--8--8--8--8--8-/9--9--9--9--9--9--9--9--9--9--9--9-------|
D|/8--8--8--8--8--8-/9--9--9--9--9--9--9--9--9--9--9--9-------|

e|------------------------------------------------------------|
B|------------------------------------------------------------|
G|\2----2---2----2--/7----7---7----7--------------------------|
D|-0----0---0----0---0----0---0----0--------------------------|
A|\3--3--3--3--3--3-/8--8--8--8--8--8-------------------------|
E|\3--3--3--3--3--3-/8--8--8--8--8--8-------------------------|

e|------------------------------------------------------------|
B|------------------------------------------------------------|
G|-7----7---7----7---7----7---7----7--\2----2---2----2--------|
D|-0----0---0----0---0----0---0----0---0----0---0----0--------|
A|/9--9--9--9--9--9--9--9--9--9--9--9-\3--3--3--3--3--3-------|
D|/9--9--9--9--9--9--9--9--9--9--9--9-\3--3--3--3--3--3-------|

e|------------------------------------------------------------|
B|------------------------------------------------------------|
G|/4----4---4----4--------------------------------------------|
D|-0----0---0----0---0----0---0----0---0----0---0----0--------|
A|/5--5--5--5--5--5--5--5--5--5--5--5--5--5--5--5--5--5-------|
D|/5--5--5--5--5--5--0--0--0--0--0--0--0--0--0--0--0--0-------|

Verse

Pre-Chorus

Chorus

e|------------------------------------------------------------|
B|------------------------------------------------------------|
G|-2----2---2----2---2----2---2----2--------------------------|
D|-0----0---0----0---5----5---5----5--------------------------|
A|-0--0--0--0--0--0--0--0--0--0--0--0-------------------------|
D|-0--0--0--0--0--0--0--0--0--0--0--0-------------------------|

e|------------------------------------------------------------|
B|------------------------------------------------------------|
G|-------------------7----7---7----7--\2----2---2----2--------|
D|-0----0---0----0---0----0---0----0---0----0---0----0--------|
A|-5--5--5--5--5--5--9--9--9--9--9--9-\3--3--3--3--3--3-------|
D|-0--0--0--0--0--0--9--9--9--9--9--9-\3--3--3--3--3--3-------|

e|------------------------------------------------------------|
B|------------------------------------------------------------|
G|/7----7---7----7---7----7---7----7---7----7---7----7--------|
D|-0----0---0----0---0----0---0----0---0----0---0----0--------|
A|/8--8--8--8--8--8-/9--9--9--9--9--9--9--9--9--9--9--9-------|
D|/8--8--8--8--8--8-/9--9--9--9--9--9--9--9--9--9--9--9-------|

e|------------------------------------------------------------|
B|------------------------------------------------------------|
G|\2----2---2----2--/7----7---7----7--------------------------|
D|-0----0---0----0---0----0---0----0--------------------------|
A|\3--3--3--3--3--3-/8--8--8--8--8--8-------------------------|
E|\3--3--3--3--3--3-/8--8--8--8--8--8-------------------------|

e|------------------------------------------------------------|
B|------------------------------------------------------------|
G|-7----7---7----7---7----7---7----7--\2----2---2----2--------|
D|-0----0---0----0---0----0---0----0---0----0---0----0--------|
A|/9--9--9--9--9--9--9--9--9--9--9--9-\3--3--3--3--3--3-------|
D|/9--9--9--9--9--9--9--9--9--9--9--9-\3--3--3--3--3--3-------|

e|------------------------------------------------------------|
B|------------------------------------------------------------|
G|/4----4---4----4--------------------------------------------|
D|-0----0---0----0---0----0---0----0---0----0---0----0--------|
A|/5--5--5--5--5--5--5--5--5--5--5--5--5--5--5--5--5--5-------|
D|/5--5--5--5--5--5--0--0--0--0--0--0--0--0--0--0--0--0-------|

Outro
e|------------------------------------------------------------------------|
B|------------------------------------------------------------------------|
G|------------------------------------------------------------------------|
D|-0----0---0----0---0----0---0----0---0----0---3----3---3----3---3----3--|
A|-5--5--5--5--5--5--5--5--5--5--5--5--5--5--5--5--5--5--5--5--5--5--5--5-|
D|-0--0--0--0--0--0--0--0--0--0--0--0--0--0--0--0--0--0--0--0--0--0--0--0-|

                                          ...and i don't know
e|------------------------------------------------------------------------|
B|------------------------------------------------------------------------|
G|-------------------2----2---2----2--------------------------------------|
D|-5----5---5----5---5----5---5----5---0----0---0----0---0----0---0----0--|
A|-5--5--5--5--5--5--5--5--5--5--5--5--8--8--8--8--8--8--8--8--8--8--8--8-|
D|-0--0--0--0--0--0--0--0--0--0--0--0--8--8--8--8--8--8--8--8--8--8--8--8-|

  notice...                     ...different
e|------------------------------------------------------------------------|
B|------------------------------------------------------------------------|
G|------------------------------------------------------------------------|
D|-0----0---0----0---5----5---7----7---3----3---3----3---3----3---3----3--|
A|-7--7--7--7--7--7--7--7--7--7--7--7--5--5--5--5--5--5--5--5--5--5--5--5-|
D|-7--7--7--7--7--7--7--7--7--7--7--7--0--0--0--0--0--0--0--0--0--0--0--0-|

                                          ...and i don't know
e|------------------------------------------------------------------------|
B|------------------------------------------------------------------------|
G|------------------------------------------------------------------------|
D|-3----3---3----3---3----3---0----0---0----0---0----0---0----0---0----0--|
A|-5--5--5--5--5--5--5--5--5--5--5--5--8--8--8--8--8--8--8--8--8--8--8--8-|
D|-0--0--0--0--0--0--0--0--0--0--0--0--8--8--8--8--8--8--8--8--8--8--8--8-|

  notice...                         ...at all...
e|------------------------------------------------------------------------|
B|------------------------------------------------------------------------|
G|------------------------------------------------------------------------|
D|-0----0---0----0---0----0---5--------5----5---5----5---5----5---5----5--|
A|-7--7--7--7--7--7--7--7--7--7--7--7--5--5--5--5--5--5--5--5--5--5--5--5-|
D|-7--7--7--7--7--7--7--7--7--7--7--7--0--0--0--0--0--0--0--0--0--0--0--0-|

                                             ...and i don't know
e|------------------------------------------------------------------------|
B|------------------------------------------------------------------------|
G|------------------------------------------------------------------------|
D|-5----5---5----0---0----0---0----0---0----0---0----0---0----0---0----0--|
A|-5--5--5--5--5--5--5--5--5--5--5--5--8--8--8--8--8--8--8--8--8--8--8--8-|
D|-0--0--0--0--0--0--0--0--0--0--0--0--8--8--8--8--8--8--8--8--8--8--8--8-|

  notice...                          ...missing...
e|------------------------------------------------------------------------|
B|------------------------------------------------------------------------|
G|-------------------------------------4----4---4----4---4----4---4----4--|
D|-0----0---0----0---0----0---0----0---0----0---0----0---0----0---0----0--|
A|-7--7--7--7--7--7--7--7--7--7--7--7--5--5--5--5--5--5--5--5--5--5--5--5-|
D|-7--7--7--7--7--7--7--7--7--7--7--7--0--0--0--0--0--0--0--0--0--0--0--0-|

e|------------------------------------------------------------------------|
B|------------------------------------------------------------------------|
G|-0----0---0----0---0----0---0----0--------------------------------------|
D|-0----0---0----0---0----0---0----0--------------------------------------|
A|-5--5--5--5--5--5--5--5--5--5--5--5-------------------------------------|
D|-0--0--0--0--0--0--0--0--0--0--0--0-------------------------------------|

e|----------------------------------------|
B|----------------------------------------|
G|-0----0---0----0---0----0---0----0---0--|    X4
D|-0----0---0----0---0----0---0----0---0--|
A|-5--5--5--5--5--5--5--5--5--5--5--0--0--|
D|-0--0--0--0--0--0--0--0--0--0--0--3--5p0| 

e|----------------------------------------|
B|----------------------------------------|
G|-0----0---0----0---0----0---0----0---0--|    X4
D|-0----0---0----0---3b---0---0----0---0--|
A|-5--5--5--5--5--5--5--0--3--5--0--0--0--|
D|-0--0--0--0--0--0--0--0--0--0--0--3--5p0|   

e|----------------------------------------|
B|----------------------------------------|
G|-0----0---0----0---0----0---0----0---0--|    
D|-0----0---0----0---0----0---0----0---0--|
A|-0--0--0--0--0--0--0--0--0--0--0--0--0--|
D|-0--0--3--5--0--3--5--0--3--5--0--3--5--| 

e|-----------------------------------------|
B|-----------------------------------------|
G|-0----0---0----0---0----0---0----0---0---|    
D|-0----0---0----0---0----0---0----0---0---|
A|-0--0--0--0--0--0--0--0--0--0--0--0--9H--|
D|-0--0--3--5--0--3--5--0--3--5--0--3--9H--| 

Enjoy!

Feel free to email me if you have questions or suggestions!
comments
print report bad tab
3 comments total.
0 reply
lose311 wrote on August 27 2014, 04:11 pm

Great tab..thanks.

0 reply
Anotherwan wrote on March 17 2016, 08:43 am

Thanks! I'll be practicing this song when I get home.

0 reply
black.edge- wrote on April 18 2016, 10:28 am

So is it standerd tuning !?
And I didn't find the video of him explaining how he play the song :/

I want to post or [tab]
guest
You may want to rate the tab now too:
select rating
Please do not post tabs as comments. Select "correction" instead!