Oops, an error
Loading. Please wait.

Yesterday Was Hard On All Of Us Tab

by Fink
41,394 views 30 this week
6 commentsread comments
1 2 3 4 5
x 16
add to favorites
launch autoscroll
font size
0
reset
how to read this tab
guitar tuner
Autoscroll
slow
fast
+/-
esc
set tempo
stop
Help us to improve Ultimate-Guitar.com Take our survey!
×
Author
Tuning: Standard

(The song is basically an assemblage of the following riffs)
e|----------------|
B|----------------|
G|-------------(0)|
D|---------0------| A
A|-----7----------|
E|-8-8---8---8----|

e|----------------|
B|----------------|
G|-------------(0)|
D|---------0------| B
A|-----5----------|
E|-7-7---7---7----|

e|----------------|
B|----------------|
G|-------------(0)|
D|---------0------| C
A|-----3----------|
E|-5-5---5---5----|

e|----------------|
B|----------------|
G|-------------(0)|
D|---------0------| D
A|-----3----------|
E|-3-3---3---3----|

e|----------------|
B|----------------|
G|-------------(0)|
D|---------0------| D*
A|-----2----------|
E|-3-3---3---3----|

e|----------------|
B|----------------|
G|-------------(0)|
D|---------0------| E
A|-----3----------|
E|-1-1---1---1----|

e|----------------|
B|----------------|
G|-------------(0)|
D|---------0------| E*
A|-----0----------|
E|-1-1---1---1----|


************************************

| (n)  Ghost note

************************************
Suggest correction
comments
print report bad tab
6 comments total. Showing first comments.
+3 reply
entspeak 71 Oct 31, 2011 06:45 PM

In listening to this and watching the video, the chord shape that you show as "D" is the same throughout, it is always the 3-2 chord shape that you have in "D*"

And to make it clearer in terms of verse/chorus/break structure, I would show the song breakdown as this:

Intro:
2A 2C 2E 4C (intro)

Verse 1 ("Where do we go from here..."):
2A 2C 2E 4C | 2A 2C 2E 4C | 2A 2C 2E 4C | 1A 1B 1C 1D* 2E 4C

Chorus ("Because, because..."):
2E 2A 2B 2C | 2E 2A 2C 2D* (Chorus)

Break
2E 1C 1D* |1E 1E* 1C 1D* | 1E 1E* 1C 1D* | 4E

Verse 2 ("Who do we trust from here..."):
1A 1B 2C 2E 4C | 2A 2C 2E 4C | 2A 2C 2E 4C | 1A 1B 1C 1D* 2E 4C (verse 2)

Chorus

Break

Verse 3 ("Where do we go from here..."): same as Verse 1

Chorus

Break to Outro:

2E 1C 1D* | 1E 1E* 1C 1D | 1E 1E* 1C 1D* | 1E 1E* 1C 1E | 1C 1E 1C 1E | 1C

Great job picking this out, though! Fantastic work!

+2 reply
tyler_182 31 Nov 02, 2011 10:19 PM

On your A rift, the 9 is suspose to be a 7

+1 reply
Kroach 133 Nov 29, 2011 06:37 PM

You're both right!

guest
You may want to rate the tab now too:
select rating
Wanna post a correction for this tab? Suggest correction