Oops, an error
Loading. Please wait.

Even After All bass

version 1
version 1

Whole song

6,929 views 15 this week
1 commentread comment
1 2 3 4 5
x 4
add to favorites
×
Save as Personal and add changes to this tab that will be seen only by you. Learn more ›
×
You can save this tab as Personal to edit and correct it or add notes. All changes will be seen only by you. Learn more »
launch autoscroll
font size
0
reset
guitar tuner
edit
Autoscroll
slow
fast
+/-
esc
set tempo
stop
Artist:  Finley Quaye
Track:  Even After All
Tabbed by PitchImperfect
04.06.06

b = bend up - half a note

G|---------------------------------------------------|
D|---------14-16-16-14-x-14---------14-16-16-14-x-14-|
A|--------------------------12b12-0------------------|
E|-12b12-0-------------------------------------------| x3

G|---------------------------------------------------|
D|---------14-16-16-14-x-14---------14-16-16-14-x-14-|
A|-14b14--------------------16b16-0------------------|
E|-------0-------------------------------------------|

This is repeated throughout the tune.

            
            
Suggest correction
Creating personal tab
Creating personal tab
You can edit any tab online and save it as your Personal.

You can edit, replace or remove any tab part or add personal notes – all changes will be seen only by you.

Personal tabs can be accessed anytime from any device, even offline.
Learn more »
comments
print report bad tab
1 comment total.
0 reply
SmallCriminal 30 Nov 05, 2008 12:02 PM

This is a nice tab. Only one change to add... he plays

i.e. :

G|---------------------------
D|---------14-16-16-14----14-
A|---------------------16----

guest
You may want to rate the tab now too:
select rating
Wanna post a correction for this tab? Suggest correction