Oops, an error
Loading. Please wait.

Clara To Calary Tab

version 1
version 1

Whole song

Interactive

553 views 1 this week
1 commentread comment
1 2 3 4 5
please rate
add to favorites
launch autoscroll
font size
0
reset
how to read this tab
guitar tuner
Autoscroll
slow
fast
+/-
esc
set tempo
stop
Help us to improve Ultimate-Guitar.com Take our survey!
×
Contributor
Difficulty
Capo
intermediate
2nd fret
Clara to Calary - Fionn Regan
Tabbed: Graeme Mitchell 12th January 2013
Description:
I tabbed this based on Fionn's facebook video that he posted by at the end of August.
The album "The Bunkhouse Vol. I: Anchor Black Tattoo" will be released on the 28th
January 2013, so I don't know if the version on the album will be any different
when it's released in the UK.

***Capo on the 2nd Fret***

Verse

D|------------0------------0------------0-----------0-----------0-----------0-----|
A|--------10-----------10-----------10-----------9-----------9-----------9--------|
D|-----0------------0------------0------------0-----------0-----------0-----------|
D|---------------0-------------------------------------0--------------------------|
A|----------------------------0------------------------------------0--------------|
D|--0--------------------------------------0--------------------------------------|



D|-----------0-----------0-----------0-----------0-----------0-----------0--|
A|--------7-----------7-----------7-----------0-----------0-----------0-----|
D|-----0-----------0-----------0-----------0-----------0-----------0--------|
D|--------------0-----------------------------------0-----------------------|
A|--------------------------0-----------------------------------0-----------|
D|--0-----------------------------------0-----------------------------------|



D|-----------0-----------0-----------0-----------0-----------0-----------0--|
A|--------0-----------0-----------0-----------0-----------0-----------0-----|
D|-----0-----------0-----------0-----------0-----------0-----------0--------|
D|--------------0-----------------------------------0-----------------------|
A|-(2)----------------------2-----------------------------------0-----------|
D|--0-----------------------------------0-----------------------------------|



D|-----------0-----------0-----------0--|
A|--------0-----------0-----------0-----|
D|-----0-----------0-----------0--------|
D|--------------0-----------------------|
A|--------------------------0-----------|
D|--0-----------------------------------|


Chorus

D|------------0-----------0-----------0------------0-----------0-----------0--|
A|---------0-----------0-----------0------------0-----------0-----------0-----|
D|------0-----------0-----------0------------0-----------0-----------0--------|
D|---------------0-----------0------------------------0-----------0-----------|
A|----------------------------------------------------------------------------|
D|--11-----------------------------------11-----------------------------------|



D|-----------0-----------0-----------0-----------0-----------0-----------0--|
A|--------0-----------0-----------0-----------0-----------0-----------0-----|
D|-----0-----------0-----------0-----------0-----------0-----------0--------|
D|--------------0-----------0-----------------------0-----------0-----------|
A|--------------------------------------------------------------------------|
D|--9-----------------------------------9-----------------------------------|



D|-----------0-----------0-----------0-----------0-----------0-----------0--|
A|--------0-----------0-----------0-----------0-----------0-----------0-----|
D|-----0-----------0-----------0-----------0-----------0-----------0--------|
D|--------------0-----------------------------------0-----------------------|
A|--------------------------0----------(2)----------------------2-----------|
D|--0-----------------------------------0-----------------------------------|



D|-----------0-----------0-----------0-----------0-----------0-----------0---|
A|--------0-----------0-----------0-----------0-----------0-----------0------|
D|-----0-----------0-----------0-----------0-----------0-----------0---------|
D|--------------0-----------------------------------0------------------------|
A|--------------------------0-----------------------------------0------------|
D|--0-----------------------------------0------------------------------------|
Suggest correction new What's this?
You can suggest a correction to this tab. Community and Mods will review your correction and vote to approve or reject it.
comments
We did not receive enough feedback on this tab! Please rate:
print report bad tab
1 2 3 4 5
1 comment total.
0 reply
FigMcDonald 29 wrote on October 17 2013, 12:24 pm

Slight adjustment to the picking pattern and a few notes here and there. After re-listening to this on the album I think it's slightly different

Verse

D|-----------------------------------------------------------------------------------------
A|-----10--------10--------10--------9--------9--------9--------7--------7--------7--------
D|---------0---------0---------0--------0--------0--------0--------0--------0--------0-----
D|------------0----------------------------0--------------------------0--------------------
A|----------------------0---------------------------0--------------------------0-----------
D|--0-----------------------------0--------------------------0-----------------------------

D|-----------------------------------------------------------------------------------
A|-----5--------5--------5--------5--------5--------5--------5--------5--------5-----
D|--------0--------0--------0--------0--------0--------0--------0--------0--------0--
D|-----------0--------------------------0--------------------------0-----------------
A|--------------------0-------(2)------------------2------(0)---------------0--------
D|--0--------------------------0--------------------------0--------------------------

D|-----------------------------
A|-----5--------5--------5-----
D|--------0--------0--------0--
D|-----------0-----------------
A|--------------------0--------
D|--0--------------------------

Chorus

D|---------------------------------------------------------------------------------------
A|------9--------9--------9--------9--------9--------9--------7--------7--------7--------
D|---------0--------0--------0--------0--------0--------0--------0--------0--------0-----
D|------------0--------0--------0--------0--------0-----------------0--------0-----------
A|---------------------------------------------------------------------------------------
D|--11-----------------------------------------------------9-----------------------------

D|-----------------------------------------------------------------------------------------
A|-----7--------7--------7-----------5--------5--------5--------5--------5--------5--------
D|--------0--------0--------0-----------0--------0--------0--------0--------0--------0-----
D|-----------0--------0--------0-----------0--------------------------0--------------------
A|--------------------------------------------------0-------(2)----------------2-----------
D|--9-----------------------------0--------------------------0-----------------------------

D|--------------------------------------------------------
A|-----5--------5--------5--------5--------5--------5-----
D|--------0--------0--------0--------0--------0--------0--
D|-----------0--------------------------0----------------- X 2
A|-(2)----------------0--------------------------0--------
D|--0--------------------------0--------------------------

guest
You may want to rate the tab now too:
select rating
Please do not post tabs as comments. Select "correction" instead!