Oops, an error
Loading. Please wait.

Hey Rabbit Tab

7,500 views 21 this week
2 commentsread comments
1 2 3 4 5
excellent!
x 4
add to favorites
launch autoscroll
font size
0
reset
how to read this tab
guitar tuner
Autoscroll
slow
fast
+/-
esc
set tempo
stop
Help us to improve Ultimate-Guitar.com Take our survey!
×
Author
Difficulty
intermediate
Words and Music by Fionn Regan
Transcribed by Andrew Carter

Gtr I (E A D G B E) - 'Untitled'

Capo - 5th fret

 Intro
  Q=85
  F/C                     Dm7/A                   Bbmaj7
 4/4
  Gtr I
  E  E E   E  E E E S S   E  E E   E  E E E S S   E  E E   E  E E E S S
|----0-0------0-0---0-0-|----0-0------0-0---0-0-|----0-0------0-0---0-0-|
|----1-1------1-1-1-1-1-|----1-1------1-1---1-1-|----1-1------1-1---1-1-|
|----0-0------0-0---0-0-|----0-0------0-0-0-0-0-|----2-2----------2-2-2-|
|--------0h2------------|--------0h2------------|--------0h3------------|
|-3---------------------|-----------------------|-----------------------|
|-3---------------------|-0---------------------|-1---------------------|
  Q.     a Q.     Q       Q.     a Q.     Q       Q.     a Q.     Q


  Bbmaj7        N.C.          F                    F
  E  E E E  E E S S S S   S S S S E   E  E E E E   E  E E E  E E E E
|----0-0-0--0-0---------|-----0-0-0------0-0---0-|----0-0----0-0---0-||
|----1-1----0-0-0h1-----|-----1-1-1------1-1---1-|----1-1----1-1---1-||
|----2-2----2-2-----0h2-|-----0-0-0------0-0---0-|----0-0----0-0-0-0-||
|-----------------------|-0h2-2-2-2-0h2----------|--------2----------||
|-----------------------|-----3-3-3----------0---|-3-----------------||
|-1---------------------|------------------------|-------------------||
  Q.     Q.     Q         Q.        a Q.     Q     Q.     Q.     Q


   Verse 1
    F                   Dm7/A                 Bbmaj7
                                                                   2/4
    E  E E E  E E E E   E  E E E  E E E S S   E  E E E  E E E S S   E  E E S S
||-----0-0----0-0---0-|----0-0----0-0---0-0-|----0-0----0-0---0-0-|----0-0-0-0-|
||o----1-1----1-1---1-|----1-1----1-1---1-1-|----1-1----1-1---1-1-|----1-1-1p0-|
||-----0-0----0-0-0-0-|----0-0----0-0-0-0-0-|----2-2--------2-2-2-|----2-2-2p0-|
||---------2----------|--------2------------|--------2------------|------------|
||o-3-----------------|---------------------|---------------------|------------|
||--3-----------------|-0-------------------|-1-------------------|-1----------|
    Q.     Q.     Q     Q.     Q.     Q       Q.     Q.     Q       Q.     E


  F/C                     F/C                       Dm7/A  Bbmaj7
 4/4
  E  E E   E  E E E S S   E  E E   E  E E E S S  3x E  E E E  E E   E S S
|----0-0------0-0---0-0-|----0-0------0-0---0-0--||----0-0----0-0-----0-0-|
|----1-1------1-1---1-1-|----1-1------1-1---1-1-o||----1-1----1-1-----1-1-|
|----0-0------0-0-0-0-0-|----0-0------0-0-0-0-0--||----0-0----2-2-----2-2-|
|--------0h2------------|--------0h2-------------||----2-2----2-2-0h2-----|
|-----------------------|-----------------------o||-----------------------|
|-3---------------------|-3----------------------||-0------1--------------|
  Q.     a Q.     Q       Q.     a Q.     Q         Q.     Q.     a Q


  Bbmaj7                F/C                     F/C
  E  E E E  E E E S S   E  E E   E  E E E S S   E  E E   E  E E E S S
|----0-0----0-0---0-0-|----0-0------0-0---0-0-|----0-0------0-0---0-0-||
|----1-1----1-1---1-1-|----1-1------1-1---1-1-|----1-1------1-1-1-1-1-||
|----2-2--------2-2-2-|----0-0------0-0-0-0-0-|----0-0------0-0---0-0-||
|--------2------------|--------0h2------------|--------0h2------------||
|---------------------|-----------------------|-----------------------||
|-1-------------------|-3---------------------|-3---------------------||
  Q.     Q.     Q       Q.     a Q.     Q       Q.     a Q.     Q


 Chorus 1
  Dm7          F/A            F      F/E      Dm
 12/8                        6/8             12/8
  E  E E E E E E E E E  E E   E  E E E  E E   E  E E   E  E E E  S S E E E E
|----0-0---0-----0------0-0-|----0-0----0-0-|----0-0------0-0----0-0-0---0----|
|----1-1---1-----1------1-1-|----1-1----1-1-|----1-1------1-1----1-1-1---1----|
|-2------0-------0------0-0-|----0-0----0-0-|----2-2------2-2-2----------2----|
|------------3-2---3-2------|---------------|--------0h2----------------------|
|---------------------------|-3------2------|-0------------------------0---2--|
|---------------------------|---------------|---------------------------------|
  Q.     Q   E Q   E Q.       Q.     Q.       Q.     a Q.     Q.       Q   E


  F                                Dm
  E  E E   E  E E E  S S E E E E   E  E E   E  E E E  S S E E  S S S S
|----0-0------0-0----0-0-0---0---|----0-0------0-0----0-0-0----0-0-0-0-|
|----1-1------1-1----1-1-1---1---|----1-1------1-1----1-1-1----1-1-1-1-|
|----0-0------0-0-0----------0---|----2-2------2-2-2-----------2-2-2-2-|
|--------0h2---------------------|--------0h2---------------2----------|
|-3------------------------3---2-|-0-----------------------------------|
|--------------------------------|-------------------------------------|
  Q.     a Q.     Q.       Q   E   Q.     a Q.     Q.       Q.


  Bbmaj7add9
  E  E S S E  E E E  S S S S E  E S S
|----3-3-3----3-3----3-3-3-3----------|
|----1-1-1----1-1----1-1-1-1----1-1-1-|
|----2-2-2----2-2-2-------------2-2-0-|
|----------2--------------------2-2-2-|
|-------------------------------------|
|-1--------------------------1--------|
  Q.       Q.     Q.         Q.


  F/C
  E  E E   E  E E E  S S E   E  S S S S
|----0-0------0-0----0-0-0------0-0-0-0--||
|----1-1------1-1----1-1-1------1-1-1-1--||
|----0-0------0-0-0-------------0-0-0-0--||
|--------0h2---------------0h2-----------||
|----------------------------------------||
|-3--------------------------------------||
  Q.     a Q.     Q.       a Q.


 Verse 2
  F/C               Dm7/A               Bbmaj7
                                       9/8
  E  E E E  S S S S E  E E E  S S S S   E  E E E  E E E  E E
|----0-0----0-0-0-0----0-0----0-0-0-0-|----0-0----0-0----0-0--|
|----1-1----1-1-1-1----1-1----1-1-1-1-|----1-1----1-1----1-1--|
|----0-0----0-0-0-0----0-0----0-0-0-0-|----2-2----2-2----2-2--|
|--------2-----------------2----------|--------2--------------|
|-------------------------------------|-----------------------|
|-3-----------------0-----------------|-1-------------1-------|
  Q.     Q.         Q.     Q.           Q.     Q.     Q.


  F/C                                     Dm7/A      Bbmaj7
 12/8                                    9/8
  E  E E   E  E E E  S S E   E  S S S S   E  S S S S E  S S E E  S S S S
|----0-0------0-0----0-0-0------0-0-0-0-|----0-0-0-0----0-0-0----0-0-0-0-|
|----1-1------1-1----1-1-1------1-1-1-1-|----1-1-1-1----1-1-1----1-1-1-1-|
|----0-0------0-0-0-------------0-0-0-0-|----0-0-0-0----2-2-2----2-2-2-2-|
|--------0h2---------------0h2----------|----2-2-2-2----2-2-2-2--2-2-2-2-|
|---------------------------------------|--------------------------------|
|-3-------------------------------------|-0----------1-------------------|
  Q.     a Q.     Q.       a Q.           Q.         Q.       Q.


  F/C                                     F/C               Dm7/A
 12/8
  E  E E   E  E E E  S S E   E  S S S S   E  E E E  S S S S E  E E E  S S S S
|----0-0------0-0----0-0-0------0-0-0-0-|----0-0----0-0-0-0----0-0----0-0-0-0-|
|----1-1------1-1----1-1-1------1-1-1-1-|----1-1----1-1-1-1----1-1----1-1-1-1-|
|----0-0------0-0-0-------------0-0-0-0-|----0-0----0-0-0-0----0-0----0-0-0-0-|
|--------0h2---------------0h2----------|--------2-----------------2----------|
|---------------------------------------|-------------------------------------|
|-3-------------------------------------|-3-----------------0-----------------|
  Q.     a Q.     Q.       a Q.           Q.     Q.         Q.     Q.


  Bbmaj7                              F/C
  E  S S E E  S S E E  S S E E  E E   E  E E   E  E E E  S S E   E  S S S S
|----0-0-0----0-0-0----0-0-0----0-0-|----0-0------0-0----0-0-0------0-0-0-0-|
|----1-1-1----1-1-1----1-1-1----1-1-|----1-1------1-1----1-1-1------1-1-1-1-|
|----2-2-2-2--2-2-2----2-2-2-2--2-2-|----0-0------0-0-0-------------0-0-0-0-|
|-------------------2---------------|--------0h2---------------0h2----------|
|-----------------------------------|---------------------------------------|
|-1---------------------------------|-3-------------------------------------|
  Q.       Q.       Q.       Q.       Q.     a Q.     Q.       a Q.


  Dm7/A      Bbmaj7                F/C
 9/8                              12/8
  E  S S S S E  S S E E  S S S S   E  E E   E  E E E  S S E   E  S S E
|----0-0-0-0----0-0-0----0-0-0-0-|----0-0------0-0----0-0-0------0-0-0-||
|----1-1-1-1----1-1-1----1-1-1-1-|----1-1------1-1----1-1-1------1-1-1-||
|----0-0-0-0----2-2-2----2-2-2-2-|----0-0------0-0-0-------------0-0-0-||
|----2-2-2-2----2-2-2-2--2-2-2-2-|--------0h2---------------0h2--------||
|--------------------------------|-------------------------------------||
|-0----------1-------------------|-3-----------------------------------||
  Q.         Q.       Q.           Q.     a Q.     Q.       a Q.


 Chorus 2
  Dm7          F/A            F      F/E      Dm
                             6/8             12/8
  E  E E E E E E E E E  E E   E  E E E  E E   E  E E   E  E E E  S S E E E E
|----0-0---0-----0------0-0-|----0-0----0-0-|----0-0------0-0----0-0-0---0---|
|----1-1---1-----1------1-1-|----1-1----1-1-|----1-1------1-1----1-1-1---1---|
|-2------0-------0------0-0-|----0-0----0-0-|----2-2------2-2-2----------2---|
|------------3-2---3-2------|---------------|--------0h2---------------------|
|---------------------------|-3------2------|-0------------------------0---2-|
|---------------------------|---------------|--------------------------------|
  Q.     Q   E Q   E Q.       Q.     Q.       Q.     a Q.     Q.       Q   E


  F                                Dm
  E  E E   E  E E E  S S E E E E   E  E E   E  E E E  S S E E  S S S S
|----0-0------0-0----0-0-0---0---|----0-0------0-0----0-0-0----0-0-0-0-|
|----1-1------1-1----1-1-1---1---|----1-1------1-1----1-1-1----1-1-1-1-|
|----0-0------0-0-0----------0---|----2-2------2-2-2-----------2-2-2-2-|
|--------0h2---------------------|--------0h2---------------2----------|
|-3------------------------3---2-|-0-----------------------------------|
|--------------------------------|-------------------------------------|
  Q.     a Q.     Q.       Q   E   Q.     a Q.     Q.       Q.


  Bbmaj7add9
  E  E S S E  E E E  S S S S E  E S S
|----3-3-3----3-3----3-3-3-3----------|
|----1-1-1----1-1----1-1-1-1----1-1-1-|
|----2-2-2-2--2-2----2-2-2-2----2-2-0-|
|----------------------------2--2-2-2-|
|-----------------0-------------------|
|-1-----------------------------------|
  Q.       Q.     Q.         Q.


  F/C
  E  E E   E  E E E  S S E   E  S S S S
|----0-0------0-0----0-0-0------0-0-0-0--||
|----1-1------1-1----1-1-1------1-1-1-1--||
|----0-0------0-0-0-------------0-0-0-0--||
|--------0h2---------------0h2-----------||
|----------------------------------------||
|-3--------------------------------------||
  Q.     a Q.     Q.       a Q.


   Outro
    F/C
    E  S S S S E  S S E E  S S E E  S S S S
||-----0-0-0-0----0-0-0----0-0-0----0-0-0-0-|
||o----1-1-1-1----1-1-1----1-1-1-1--1-1-1-1-|
||-----0-0-0-0-0--0-0-0-------------0-0-0-0-|
||----------------------2-------------------|
||o-----------------------------------------|
||--3---------------------------------------|
    Q.         Q.       Q.       Q.


  Dm7/A
  E  S S S S   E  S S E E  S S E E  S S S S
|----0-0-0-0------0-0-0----0-0-0----0-0-0-0-|
|----1-1-1-1------1-1-1----1-1-1----1-1-1-1-|
|----0-0-0-0------0-0-0-0-----------0-0-0-0-|
|------------0h2-----------------2----------|
|-------------------------------------------|
|-0-----------------------------------------|
  Q.         a Q.       Q.       Q.


  Bbmaj7
  E  S S E E  S S S S E  S S S S E  E E
|----0-0-0----0-0-0-0----0-0-0-0----0-0-|
|----1-1-1----1-1-1-1----1-1-1-1----1-1-|
|----2-2-2----2-2-2-2-2--2-2-2-2-2--2-2-|
|----------2----------------------------|
|---------------------------------------|
|-1-------------------------------------|
  Q.       Q.         Q.         Q.


  F/C
  E  S S S S E  S S E   E  S S E E  S S S S
|----0-0-0-0----0-0-0------0-0-0----0-0-0-0----||
|----1-1-1-1----1-1-1------1-1-1----1-1-1-1---o||
|----0-0-0-0-0--0-0-0------0-0-0-0--0-0-0-0----||
|---------------------0h2----------------------||
|---------------------------------------------o||
|-3--------------------------------------------||
  Q.         Q.       a Q.       Q.


  F/C               Dm7/A               Bbmaj7
                                       9/8
  E  E E E  S S S S E  E E E  S S S S   E  E E E  E E E  E E
|----0-0----0-0-0-0----0-0----0-0-0-0-|----0-0----0-0----0-0--|
|----1-1----1-1-1-1----1-1----1-1-1-1-|----1-1-1--1-1----1-1--|
|----0-0-0--0-0-0-0----0-0----0-0-0-0-|----2-2----2-2----2-2--|
|--------------------------2----------|---------------2-------|
|-------------------------------------|-----------------------|
|-3-----------------0-----------------|-1---------------------|
  Q.     Q.         Q.     Q.           Q.     Q.     Q.


  F/C                                       Dm7/A Bbmaj7
 12/8
  E  S S E   E  E E E  S S E   E  S S S S   E E E E E E H.
|----0-0-0------0-0----0-0-0------0-0-0-0-|-0-----0-----------*|
|----1-1-1------1-1----1-1-1------1-1-1-1-|-1-----1-----------*|
|----0-0-0------0-0-0-------------0-0-0-0-|-0-----2-----------*|
|----------0h2---------------0h2----------|-2-----2-----------*|
|-----------------------------------------|-0-----0-----------*|
|-3---------------------------------------|-0-----1-----------*|
  Q.       a Q.     Q.       a Q.


Duration Legend
---------------
W - whole; H - half; Q - quarter; E - 8th; S - 16th; T - 32nd; X - 64th; a - acciaccatura
+ - note tied to previous; . - note dotted; .. - note double dotted
Uncapitalized letters represent notes that are staccato (1/2 duration)
Irregular groupings are notated above the duration line
Duration letters will always appear directly above the note/fret number it represents the
duration for.  Duration letters with no fret number below them represent rests.  Multi-
bar rests are notated in the form Wxn, where n is the number of bars to rest for.  Low
melody durations appear below the staff

Tablature Legend
----------------
 h   - hammer-on
 p   - pull-off
 b   - bend
 pb  - pre-bend
 r   - bend release (if no number after the r, then release immediately)
 /\  - slide into or out of (from/to "nowhere")
 s   - legato slide
 S   - shift slide
  - natural harmonic
[n]  - artificial harmonic
n(n) - tapped harmonic
 ~   - vibrato
 tr  - trill
 T   - tap
 TP  - trem. picking
 PM  - palm muting
\n/  - tremolo bar dip; n = amount to dip
 \n  - tremolo bar down
 n/  - tremolo bar up
/n\  - tremolo bar inverted dip
 =   - hold bend; also acts as connecting device for hammers/pulls
 <>  - volume swell (louder/softer)
 x   - on rhythm slash represents muted slash
 o   - on rhythm slash represents single note slash

Misc Legend
-----------
 |  - bar
||  - double bar
||o - repeat start
o|| - repeat end
*|  - double bar (ending)
 :  - bar (freetime)
 $  - Segno
 &  - Coda
Tempo markers -  = BPM(8/16=s8/s16), where s8 = swing 8ths, s16 = swing 16ths

uploaded by liamskimac :)
Suggest correction
What's this?
You can suggest a correction to this tab. Community and Mods will review your correction and vote to approve or reject it.
comments
print report bad tab
2 comments total.
0 reply
monkeylover97 43 wrote on March 15 2012, 09:48 pm

Really lovely song, great tab...thanks

0 reply
drake.withers 14 wrote on May 30 2013, 01:35 pm

I appreciate the detail; well tabbed!

guest
You may want to rate the tab now too:
select rating
Please do not post tabs as comments. Select "correction" instead!