Oops, an error
Loading. Please wait.

Put A Penny In The Slot Tab

version 2
version 2

Whole song

Interactive

8,724 views 1 this week
no commentswrite comment
1 2 3 4 5
accurate
x 4
add to favorites
launch autoscroll
font size
0
reset
how to read this tab
guitar tuner
Autoscroll
slow
fast
+/-
esc
set tempo
stop
Help us to improve Ultimate-Guitar.com Take our survey!
×
Author
Difficulty
Capo
intermediate
1st fret
artist: fionn regan
song: put a penny in the slot
http://www.fionnregan.com

capo 1st fret

verse
     C/G                             Fmaj7   E
e||----0---0---0---0---0---0---0---0---0---0---0---0-|
b||----1---1---1---1---1---1---1---1---1---1---0---0-|
g||.---0---0---0---0-2-2-0-0---0---0---2---2---1---1-|
d||.-----2-------2-----------2---------3---3---2---2-|
a||----------3-------------------3-------3-------2---|
e||--3-------------------------------1-------0-------|

 ___am_________________  ____________________________
 1. 2. 3.              || 4.                         |
e|----0-----0---0---0--||----0-----0---0-----0-------|
b|----1-----1---1---1--||----1-----1---1-----1-------|
g|----2-----2-2-2---2-.||----2-----2-2-2-----2-------|
d|------0h2-------2---.||------0h2-------0h2---------|
a|--0------------------||--0-------------------------|
e|---------------------||----------------------------|

chorus
    am      C
e|----0---0---0---0---0---0---0---0--|
b|----1---1---1---1---1---1---1---1--|
g|----2---0---0---0---0---0-2-2-0-0--|
d|----2---0-----0---2---3------------|
a|--0---2---3------------------------|
e|-----------------------------------|

    C/G                Fmaj7   em
e|-----0-----0---0---0---0---0---0-----0---0---0--|
b|-----1-----1---1---1---1---1---0-----0---0---0--|
g|-----0-----0-0-0---0---2---2---0-----0-0-0---0--|
d|-------0h2-------2-----3-3-3---2-0h2-2-----2----|
a|------------------------------------------------|
e|--3------------------1-------0------------------|

    Fmaj7   C/G                      
e|----0---0---0-----0---0-----0---0-----0---0---0-|
b|----1---1---1-----1---1-----1---1-----1---1---1-|
g|----2---2---0-----0---0-----0---0-----0---0---0-|
d|----3-3-3-----0h2-------0h2-------0h2-------2---|
a|--------------------3-------------------3-------|
e|--1-------3-------------------3-----------------|

3rd chorus/bridge
    am      C
e|----0---0---0---0---0---0---0---0--|
b|----1---1---1---1---1---1---1---1--|
g|----2---0---0---0---0---0-2-2-0-0--|
d|----2---0-----0---2---3------------|
a|--0---2---3------------------------|
e|-----------------------------------|

    C/G                  
e|-----0-----0---0-----0---0-----0---0---0--|
b|-----1-----1---1-----1---1-----1---1---1--|
g|-----0-----0-0-0-----0---0-----0-0-0---0--|
d|-------0h2-------0h2-------0h2-------2----|
a|------------------------------------------|
e|--3--------------------3------------------|

bridge x4
    Fmaj7                           C/G              G
e|----0---0---0---0---0---0---0---0---0---0---0---0---3---3---3---3--|
b|----1---1---1---1---1---1---1---1---1---1---1---1---0---0---0---0--|
g|----2---2---2---2---2---2---2---2---0---0-0-0---0---0---0-0-0---0--|
d|----3---3---3---3---3---3---3---3-----2-------2-------0-------0----|
a|-------------------------------------------------------------------|
e|--1---0---1---0---1---0---1---0---3---------------3----------------|

last chorus
    am      C
e|----0---0---0---0---0---0---0---0--|
b|----1---1---1---1---1---1---1---1--|
g|----2---0---0---0---0---0-2-2-0-0--|
d|----2---0-----0---2---3------------|
a|--0---2---3------------------------|
e|-----------------------------------|

    C/G                Fmaj7   em
e|-----0-----0---0---0---0---0---0-----0---0---0--|
b|-----1-----1---1---1---1---1---0-----0---0---0--|
g|-----0-----0-0-0---0---2---2---0-----0-0-0---0--|
d|-------0h2-------2-----3-3-3---2-0h2-2-----2----|
a|------------------------------------------------|
e|--3------------------1-------0------------------|

   Fmaj7     C/G                      
e|----0---0--0--|
b|----1---1--1--|
g|----2---2--0--|
d|----3-3-3--2--|
a|-----------3--|
e|--1--------3--|

h = hammer-on
Suggest correction
comments
print report bad tab
guest
You may want to rate the tab now too:
select rating
Please do not post tabs as comments. Select "correction" instead!