Oops, an error
Loading. Please wait.

The Bunkhouse Tab

version 1
version 1

Whole song

Interactive

438 views 6 this week
no commentswrite comment
1 2 3 4 5
please rate
add to favorites
launch autoscroll
font size
0
reset
how to read this tab
guitar tuner
Autoscroll
slow
fast
+/-
esc
set tempo
stop
Help us to improve Ultimate-Guitar.com Take our survey!
×
Author
Difficulty
Capo
Flipsos 36
novice
5th fret
This tab is just to give you an idea and not trying to be 100% accurate. 
Have fun figuring out the little details or making your own version of the song.
And if you enjoy playing this song, I really hope you already bought the record, it's worth it!


Capo 5


INTRO & VERSE

   Am
e-----------------------------------|
B---1---1---1---1---5--5---3---3----|
G---2---2---2---2---0--0---0---0----|
D---2---2---2---2---5--5---3---3----|
A--0---0---0---0---0--0---0---0-----|
E-----------------------------------|

         Am7/G            F           Am7/G        E7
  |-----------------------------------------------------------------------|
  |---1---1---1---1----------------1--1--1--1-----------------------------|
 .|---0---0---0---0---2--2--2--2---0--0--0--0---1--1--1--1--1--1--1--1----|
 .|---2---2---2---2---3--3--3--3---2--2--2--2---0--0--0--0--0--0--0--0----|
  |-------------------3--3--3--3----------------2--2--2--2--2--2--2--2----|
  |--3---3---3---3---1--1--1--1---3--3--3--3---0--0--0--0--0--0--0--0-----|




Am              
Put the chair against the handle 
                    Am7/G
in the window light a candle
                   F                 
when you're smoking up
    Am7/G         E7
the chimney slowly


Am
The wind it blew the slates off
                                 Am7/G
your prayers float through the foxglove
             F              
grip the iron
Am7/G           E7
bed post quickly


Am
We watched them carry the coffin
                           Am7/G
from the house down to the river
        F
they recited
     Am7/G
come away
         E7
from the well


        Am
At the gathering the whole room it fell silent
                      Am7/G
it heckled and grew violent
                   F
I stood at your back
        Am7/G
deep breath 
   E7
haystack


        Am
You're a business man wrapped in a caftan
                       Am7/G
it's all you'll ever be
                      F
go count your money
        Am7/G                E7
I'm a painter, you're a framer



BRIDGE

    F                         Em
e-------------------------------------------------------|
B-------------------------------------------------------|
G---2--2--2--2----------------0--0--0--0--0--0--0--0----|  
D---3--3--3--3---0--2--3--5---2--2--2--2--2--2--2--2----| 
A---3--3--3--3---3--3--3--3---2--2--2--2--2--2--2--2----|
E--1--1--1--1---1--1--1--1---0--0--0--0--0--0--0--0-----|




F                 Em
Wear a warm coat
F                    Em
It get's cold out there
                Am
Out at the bunkhouse



FIN


Am         Am7/G        F         E7
Prayers float through the foxglove
Am         Am7/G        F         E7
Prayers float through the foxglove
Suggest correction new What's this?
You can suggest a correction to this tab. Community and Mods will review your correction and vote to approve or reject it.
comments
We did not receive enough feedback on this tab! Please rate:
print report bad tab
1 2 3 4 5
guest
You may want to rate the tab now too:
select rating
Please do not post tabs as comments. Select "correction" instead!