Oops, an error
Loading. Please wait.

Violent Demeanour Tab

1,426 views 1 this week
no commentswrite comment
1 2 3 4 5
please rate
add to favorites
launch autoscroll
font size
0
reset
how to read this tab
guitar tuner
Autoscroll
slow
fast
+/-
esc
set tempo
stop
Help us to improve Ultimate-Guitar.com Take our survey!
×
Author
Difficulty
Capo
intermediate
3rd fret
-------------------------------------------------------------------------------
                             VIOLENT DEMEANOUR - Fionn Regan
-------------------------------------------------------------------------------
Tabbed by: Jonathan R.
Tuning: Standard Tuning (Capo 3)
 
  Verse
e|---------------------------------------------------------------------------|
B|---------------------------------------------------------------------------|
G|------5---5---5---5---5---5---5---5---5---5---5---5---5---5----------------|
D|--------7---7---7---7---7-------7-------7---7---7---7---7------------------|
A|----0-------------------------------0--------------------------------------|
E|----------------------------0----------------------------------------------|
White knuckle alabaster                              you're

e|---------------------------------------------------------------------------|
B|---------------------------------------------------------------------------|
G|----7---7---5---5---5---5---5---5---7---7---5---5---5---5---5---5----------|
D|------7-------5---5---5---5---5-------7-------5---5---5---5---5------------|
A|--8-------7-----------------------8-------7--------------------------------|
E|---------------------------------------------------------------------------|
    on a     traffic                island                  with a

e|---------------------------------------------------------------------------|
B|---------------------------------------------------------------------------|
G|----7---7---5---5---5---5---7---7---7---7----------------------------------|
D|------7-------5---5---5-------7---7---7------------------------------------|
A|--8-------7---------------8------------------------------------------------|
E|---------------------------------------------------------------------------|
    bag     of              birthday

e|---------------------------------------------------------------------------|
B|---------------------------------------------------------------------------|
G|------5---5---5---5---5---5---5---5---5---5---5---5---5---5----------------|
D|--------7---7---7---7---7-------7-------7---7---7---7---7------------------|
A|----0-------------------------------0--------------------------------------|
E|----------------------------0----------------------------------------------|
      cards
(These verses follow the same pattern. It's easy to figure the rest out.)


         Em   G   Am               Em   G   Am
e|-------0----3---0----------------0----3---0--------------------------------|
B|-------0----0---1----------------0----0---1--------------------------------|
G|-------0----0---2----------------0----0---2--------------------------------|
D|-------2----0---2----------------2----0---2--------------------------------|
A|-------2----2---0----------------2----2---0--------------------------------|
E|-------0----3--------------------0----3------------------------------------|
  I've a violent Demeanour      so tie me to a chair
  (till it's out of my system   till it's out of my system)

            Em   G   F           Em   G
e|----------0----3---1-----------0----3--------------------------------------|
B|----------0----0---1-----------0----0--------------------------------------|
G|----------0----0---2-----------0----0--------------------------------------|
D|----------2----0---3-----------2----0--------------------------------------|
A|----------2----2---3-----------2----2--------------------------------------|
E|----------0----3---1-----------0----3--------------------------------------|
   down the Shanghai Tunnels

  Play this as a break, then repeat the verse pattern above.
e|---------------------------------------------------------------------------|
B|---------------------------------------------------------------------------|
G|------5---5---5---5---5---5---5---5---5---5---5---5---5---5----------------|
D|--------7---7---7---7---7-------7-------7---7---7---7---7------------------|
A|----0-------------------------------0--------------------------------------|
E|----------------------------0----------------------------------------------|

 Bridge 
    F                   F/E  C
e|--1--/--/--/--/--/--0--/---0-----------------------------------------------|
B|--1-----------------1------1-----------------------------------------------|
G|--2-----------------2------0-----------------------------------------------|
D|--3-----------------3------2-----------------------------------------------|
A|--3-----------------3------3-----------------------------------------------|
E|--1------------------------------------------------------------------------|
    Tunnels                  There you were at the start of life

    Em                                      Am
e|--0---------------------------------------0--------------------------------|
B|--0---------------------------------------1--------------------------------|
G|--0---------------------------------------2--------------------------------|
D|--2---------------------------------------2--------------------------------|
A|--2---------------------------------------0--------------------------------|
E|--0------------------------------------------------------------------------|
    Looking up into your mother's eyes     Now there's pennies on your eyelids

    F
e|--1------------------------------------------------------------------------|
B|--1------------------------------------------------------------------------|
G|--2------------------------------------------------------------------------|
D|--3------------------------------------------------------------------------|
A|--3------------------------------------------------------------------------|
E|--1------------------------------------------------------------------------|
           Repeat Em, G, Am for the outro.


Suggest correction
Give kudos to tab author, rate the tab!
1 2 3 4 5
comments
print report bad tab
guest
You may want to rate the tab now too:
select rating
Please do not post tabs as comments. Select "correction" instead!