Oops, an error
Loading. Please wait.

Lydia tab

version 1
version 1

Whole song

Interactive

by Fir
2,184 views 1 this week
no commentswrite comment
1 2 3 4 5
3 more votes to show rating
add to favorites
×
Save as Personal and add changes to this tab that will be seen only by you. Learn more ›
×
You can save this tab as Personal to edit and correct it or add notes. All changes will be seen only by you. Learn more »
launch autoscroll
font size
0
reset
how to read this tab
guitar tuner
edit
Autoscroll
slow
fast
+/-
esc
set tempo
stop
Difficulty
intermediate
F.I.R - Lydia Full song

Standard Tuning EADGBE

Key:     s - slide
	\/\/\/\/\/\/- wammy bar
	h - hammer
	p - pull-off
	br - bend/release
	~ - vibrato
	pm - palm mute
	

E|-----------------------------------------------|
A|-----------------------------------------------|
D|-----------------------------------------------|
G|-----------------------------------------------|
B|-----------------------------------------------|
E|-----------------------------------------------|

|-----------------------------------------------|
|-----------------------------------------------|
|-----------------------------------------------|
|-----------------------------------------------|
|-----------------------------------------------|
|----------22--------------21-------------------|

|-----------------------------------------------|
|-----------------------------------------------|
|-----------------------------------------------|
|---------------------------------9------7------|
|--------7-----7-----8--------------------------|
|-----------------------------------------------|

|-----------------------------------------------|
|-----------------------------------------------|
|-----------------------------------------------|
|-----9------6-----------------------------7----|
|---------------------5s7-------7---------------|
|-----------------------------------------------|

|-----------------------------------------------|
|-----------------------------------------------|
|------9---------------------7------------------|
|-------------7s9-------------------------------|
|--------------------------------------10-------|
|-----------------------------------------------|

|-----------------------------------------------|
|-----------------------------------------------|
|-----------------------------------------------|
|-----------------------------------------------|
|---------8--------8---------7------------------|
|-----------------------------------------------|

|-----------------------------------------------|
|-----------------------------------------------|
|-----------------------------------------------|
|--------------------------------------9--------|
|------7------7------8--------------------------|
|-----------------------------------------------|

|-----------------------------------------------|
|-----------------------------------------------|
|-----------------7-----------------------------|
|-------6---------------------------------------|
|----------------------------10-------8---------|
|-----------------------------------------------|

|-----------------------------------------------|
|-----------------------------------------------|
|-----------------------------------------------|
|----------------------------------7------------|
|-------7h8p7-----------7-----------------------|
|-----------------------------------------------|

|-----------------------------------------------|
|-----------------------------------------------|
|-------9---------------------7-----------------|
|-------------7s9---------------------7---------|
|-----------------------------------------------|
|-----------------------------------------------|

|-----------------------------------------------|
|-----------------------------------------------|
|-----------------------------------------------|
|--------6------7-------------------------------|
|-----------------------------------------------|
|-----------------------------------------------|

|--------5s11/\/\/\/\/\/\/\/\/\/\/--------------|
|-----------------------------------------------|
|-----------------------------------------------|
|-----------------------------------------------|
|-----------------------------------------------|
|-----------------------------------------------|

|-----------------------------------------------|
|-----------------------------------------------|
|-----------------------------------------------|
|------7-----7-----7----------------------------|
|--------------------------10------8------------|
|-------------------------------------------8---|

|-----------------------------------------------|
|-----------------------------------------------|
|-----------------------------------------------|
|-------------------------10--------------------|
|-------10------8-----------------8-------------|
|-----------------------------------------------|

|-----------------------------------------------|
|-----------------------------------------------|
|-----------------------------------------------|
|-----------------------10----------------------|
|-------10p8------------------------------------|
|-----------------------------------------------|

|-----------------------------------------------|
|-----------------------------------------------|
|----------------10-------8--------10-----------|
|-------7---------------------------------------|
|-----------------------------------------------|
|-----------------------------------------------|

|-----------------------------------------------|
|-----------------------------------------------|
|-----------------------------------------------|
|------7--------10--------7---------10----------|
|-----------------------------------------------|
|-----------------------------------------------|

|-----------------------------------------------|
|-----------------------------------------------|
|-----------------------------------------------|
|------9----------------------------------------|
|---------------10~-----------------------------|
|-----------------------------------------------|

|-----------------------------------------------|
|-----------------------------------------------|
|-----------------------------------------------|
|-----7-----------------------------------------|
|--------------7--------------------------------|
|----------------------10-------9---------------|

|-----------------------------------------------|
|-----------------------------------------------|
|-----------------------------------------------|
|---------------------------------------9-------|
|------10-----------------10--------------------|
|----------------7------------------------------|

|-----------------------------------------------|
|-----------------------------------------------|
|-----------------------------------------------|
|--------------------------------7--------9-----|
|-------8-------7-------------------------------|
|-----------------------------------------------|

|-----------------------------------------------|
|-----------------------------------------------|
|-----------------------------------------------|
|-----------------------------------------9-----|
|-------7------10------8------7-----------------|
|-----------------------------------------------|

|-----------------------------------------------|
|-----------------------------------------------|
|-----------------------------------------------|
|-----------------------------------------------|
|--------7---------9---------7------------------|
|-----------------------------------------------|

|-----------------------------------------------|
|-----------------------------------------------|
|-----------------------------------------------|
|--------7--------------------------------------|
|-------------------7---------------------------|
|------------------------------10--------9------|

|-----------------------------------------------|
|-----------------------------------------------|
|-----------------------------------------------|
|-------------------------------------------9---|
|----------------------------------10-----------|
|-------10------12------9-----------------------|

|-----------------------------------------------|
|-----------------------------------------------|
|-----------------------------------------------|
|---------------------------7---------9---------|
|--------7--------------------------------------|
|-----------------------------------------------|

|-----------------------------------------------|
|-----------------------------------------------|
|-----------------------------------------------|
|-----------------------------------------------|
|--------7---------10--------8--------7---------|
|-----------------------------------------------|

|-----------------------------------------------|
|-----------------------------------------------|
|-----------------------------------------------|
|-------9---------------------------------------|
|-----------------------------------------------|
|-----------------10-------9-------9~-----------|

|-----------------------------------------------|
|-----------------------------------------------|
|-----------------------------------------------|
|-----------------------------------------------|
|-----------------------------------------------|
|-------------------7~--------------------------|

|-----------------------------------------------|
|-----------------------------------------------|
|-----------------------------------------------|
|-----------------------------------------------|
|-----15------17--------------------15----------|
|--------------------------14-------------------|

|-----------------------------------------------|
|-----------------------------------------------|
|-----------------------------------------------|
|-----------------------------------------------|
|-----------------------------------------------|
|------19------17-------15h-----17p15-----------|

|-----------------------------------------------|
|-----------------------------------------------|
|-----------------------------------------------|
|-----------------------------------------------|
|-----------------17----------------------------|
|------14-------------------14------------------|

|-----------------------------------------------|
|-----------------------------------------------|
|-----------------------------------------------|
|-----------------------------------------------|
|-----------------------------------------------|
|------15------14h15p14------12-----------------|

|-----------------------------------------------|
|-----------------------------------------------|
|-----------------------------------------------|
|-----------------------------------------------|
|------------------------------15-------14------|
|-----14------------12--------------------------|

|-----------------------------------------------|
|-----------------------------------------------|
|-----------------------------------------------|
|----------------15-----------------------------|
|------12------------------12----------14-------|
|-----------------------------------------------|

|-----------------------------------------------|
|-----------------------------------------------|
|-----------------------------------------------|
|-----------------------------------------------|
|-----15------17--------------------15----------|
|--------------------------14-------------------|









            
            
Suggest correction
Creating personal tab
Creating personal tab
You can edit any tab online and save it as your Personal.

You can edit, replace or remove any tab part or add personal notes – all changes will be seen only by you.

Personal tabs can be accessed anytime from any device, even offline.
Learn more »
Give kudos to tab author, rate the tab!
1 2 3 4 5
comments
print report bad tab
guest
Wanna post a correction for this tab? Suggest correction