Oops, an error
Loading. Please wait.

He Who Kills Tab

version 1
version 1

Whole song

286 views 1 this week
no commentswrite comment
1 2 3 4 5
3 more votes to show rating
add to favorites
launch autoscroll
font size
0
reset
how to read this tab
guitar tuner
×
Best way to learn
"He Who Kills"
Autoscroll
slow
fast
+/-
esc
set tempo
stop
HE WHO KILLS

Tuned 1/2 step down

          Riff 1:
|---------------|----------------------|--------------|
|---------------|----------------------|--------------|
|-o-----------o-|--/7--5--3-5-3h5-3--o-|--/5--3-----o-|
|-o-----------o-|--------------------o-|---------3--o-|
|---5-7--5-7----|----------------------|--------------|
|---3-5--3-5----|----------------------|--------------|

          Riff 2:
|---------------|
|---------------|
|-o-----------o-|
|-o-5-7--5-7--o-|
|---3-5--3-5----|
|---------------|

          Riff 3:
|------------------------------------------|
|------------------------------------------|
|-o--------------------------------------o-|
|-o--------------5---5---/7-5-3-5---7-7--o-|
|---7---7---7---73---3----------3---5-5----|
|---5---5---5---5--------------------------|

         
          Fill 1:
|-----------|
|-----------|
|---5---7---|
|---3---5---|
|-----------|
|-----------|

          Riff 4:
|----------------------------------------------------------|
|----------------------------------------------------------|
|-o------------------------------------------------------o-|
|-o--7-7-5-7--2--3-3-----3-5-5---------------------------o-|
|----5-5-3-5--0--1-1-----1/3-3---3---3--3-3-5--5--3-5-3----|
|--------------------------------1---1--1-1-3--3--1-3-1----|


          Riff 4 Variation:
|---------------------------------------------------------|
|---------------------------------------------------------|
|-o-----------------------------------------------------o-|
|-o--7-7-5-7--2--3-3-----3-5-5--------------3--3--5--5--o-|
|----5-5-3-5--0--1-1-----1/3-3---3---3--3-3-1--1--3--3----|
|--------------------------------1---1--1-1---------------|

          Riff 5:
                 1============ 2=============
|----------------|-------------|-------------|
|----------------|-------------|-------------|
|-o----------5---|-----------o-|-----------o-|
|-o--2---5---3---|--/7-5-3h5-o-|-----------o-|
|----0---3-------|-------------|-3--5-3------|
|----------------|-------------|--------5----|

          Riff 5 Variation:
                 1============ 2=============
|----------------|-------------|-------------|
|----------------|-------------|-------------|
|-o----------5-5-|-----------o-|-----------o-|
|-o--2---5-5-3-3-|--/7-5-3h5-o-|-----------o-|
|----0---3-3-----|-------------|-3--5-3------|
|----------------|-------------|--------5----|
Suggest correction
Give kudos to tab author, rate the tab!
1 2 3 4 5
comments
print report bad tab
guest
You may want to rate the tab now too:
select rating
Wanna post a correction for this tab? Suggest correction