Oops, an error
Loading. Please wait.

King intro tab

version 1
version 1

Intro

Whole song

1,176 views 3 this week
1 commentread comment
1 2 3 4 5
2 more votes to show rating
add to favorites
×
Save as Personal and add changes to this tab that will be seen only by you. Learn more ›
×
You can save this tab as Personal to edit and correct it or add notes. All changes will be seen only by you. Learn more »
launch autoscroll
font size
0
reset
how to read this tab
guitar tuner
edit
Autoscroll
slow
fast
+/-
esc
set tempo
stop
Author
Difficulty
intermediate
ok this is my first tab it sounds ok not sure if its 100% right but oh well here it goes hope you enjoy!!

Intro:

|-------------------------------------------------------|
|-------------------------------------------------------|
|-------------------------------------------------------|
|------------------------------------bu-----------------|
|--------7 7---5-5-------------------5---3--------------|
|--5-----------------7-7----3--5--3----------5----------|

Thats it for know hope u liked it, Abi.C

            
            
Suggest correction
Creating personal tab
Creating personal tab
You can edit any tab online and save it as your Personal.

You can edit, replace or remove any tab part or add personal notes – all changes will be seen only by you.

Personal tabs can be accessed anytime from any device, even offline.
Learn more »
Give kudos to tab author, rate the tab!
1 2 3 4 5
comments
print report bad tab
1 comment total.
0 reply
tappster 31 Mar 02, 2010 09:23 PM

Not correct.
This one (as found in several other places in the net) is correct for the intro.

|------|---------------------------------------------------|
|------|---------------------------------------------------|
|------|---------------------------------------------------|
|------|---------------------------------------------------|
|------|------7--7--5--------------------------------------|
|-/12--|---0-------------3--0--3--5--3--5^-3--0--0---------|

The first 4 times, until Bass and second guitar joins is only played by the drums and one guitar. When the second guitar joins, the part is played 2 times and the last two times the second guitar playes 5--5--3 instead of 7--7--5.

I also do not go along with the "1/2 step down" and "standard" tuning versions I found.
Look at the video and the only tuning that fits what they play is a "drop C#" tuning. At least thats how we play it ;-)

Cheers,

Tappster

guest
You may want to rate the tab now too:
select rating
Wanna post a correction for this tab? Suggest correction