Oops, an error
Loading. Please wait.

Core Of My Addiction Tab

version 2
version 2

Whole song

Interactive

2,223 views 12 this week
1 commentread comment
1 2 3 4 5
accurate
x 5
add to favorites
launch autoscroll
font size
0
reset
how to read this tab
guitar tuner
Autoscroll
slow
fast
+/-
esc
set tempo
stop
Help us to improve Ultimate-Guitar.com Take our survey!
×
Author
Difficulty
novice
Fireflight - Core Of My Addiction (Standard Tuning Version) 

Tuning - Standard (low to high) EADGBe 

Guitar 1 - Clean 
e|----------------------------------|
B|----------------------------------|
G|----------------------------------|
D|----------------------------------| repeat however many times until
A|-------6-6-6-6-6-------2-2--------| 
E|-4-4-4-----------0-0-0-----2-2-2--|

e|----------------------------------|
B|----------------------------------|
G|----------------------------------|
D|----------------------------------|
A|-------6-6-6-6-6------------------|
E|-4-4-4-----------0-0-0-2-2-2-2-2--|

Guitar 1 & 2 - Overdrive
e|----------------------------------|
B|----------------------------------|
G|----------4-4---------------------|
D|-6-6--6-6-4-4-4-4---6-6-2-2-4-4---| x2
A|-6-6--6-6-2-2-4-4---6-6-2-2-4-4---|
E|-4-4--4-4-----2-2---4-4-0-0-2-2---|

Guitar 1 - Overdrive
e|---------------------------------------------------------|
B|---------------------------------------------------------|
G|--------4--------------4-------------4-------------------|
D|-6------4-(x8)-4-------4-(x3)-2------4-(x8)4------5------| 
A|-6-(x8)-2------4-(x12)-2------2-(x8)-2-----4-(x8)-5-(x8)-|
E|-4-------------2--------------0------------2------3------|

Guitar 2 - Overdrive
e|---------------------------------------------------------------------|
B|--------------------------------------------9-7---------9~7----------|
G|--------4--------------4-------------4----------8-6---------8-6------|
D|-6------4-(x8)-4-------4-(x3)-2------4-(x8)---------9-6---------9-6~-| 
A|-6-(x8)-2------4-(x12)-2------2-(x8)-2-------------------------------|
E|-4-------------2--------------0--------------------------------------|
Repeat 2 or 3 times, can't remember how many :/ 

Guitar 1 - Clean
e|----------------------------------|
B|----------------------------------|
G|----------------------------------|
D|----------------------------------| repeat however many times until
A|-------6-6-6-6-6-------2-2--------| 
E|-4-4-4-----------0-0-0-----2-2-2--|

e|----------------------------------|
B|----------------------------------|
G|----------------------------------|
D|----------------------------------|
A|-------6-6-6-6-6------------------|
E|-4-4-4-----------0-0-0-2-2-2-2-2--|

Guitar 1 & 2- Overdrive
e|----------------------------------|
B|----------------------------------|
G|----------4-4---------------------|
D|-6-6--6-6-4-4-4-4---6-6-2-2-4-4---| x2
A|-6-6--6-6-2-2-4-4---6-6-2-2-4-4---|
E|-4-4--4-4-----2-2---4-4-0-0-2-2---|

Guitar 1 - Overdrive
e|---------------------------------------------------------|
B|---------------------------------------------------------|
G|--------4--------------4-------------4-------------------|
D|-6------4-(x8)-4-------4-(x3)-2------4-(x8)4------5------| 
A|-6-(x8)-2------4-(x12)-2------2-(x8)-2-----4-(x8)-5-(x8)-|
E|-4-------------2--------------0------------2------3------|

Guitar 2 - Overdrive
e|---------------------------------------------------------------------|
B|--------------------------------------------9-7---------9~7----------|
G|--------4--------------4-------------4----------8-6---------8-6------|
D|-6------4-(x8)-4-------4-(x3)-2------4-(x8)---------9-6---------9-6~-| 
A|-6-(x8)-2------4-(x12)-2------2-(x8)-2-------------------------------|
E|-4-------------2--------------0--------------------------------------|
Repeat 2 or 3 times, can't remember how many :/ 

Guitar 1 & 2 - Clean (PM - .)
e|-----------------------|
B|-----------------------|
G|-----------------------|
D|-6------2------4-------|
A|-6-(x8)-2-(x8)-4-(x8)--|
E|-4------0------2-------|
   .      .    (slowly release palm mute, gets louder)

Guitar 1 - Clean
e|------------------|
B|------------------|
G|----------4-4-----|
D|-6-6--6-6-4-4-4-4-|
A|-6-6--6-6-2-2-4-4-|
E|-4-4--4-4-----2-2-|

(drum fill)
Guitar 1 - Overdrive
e|---------------------------------------------------------|
B|---------------------------------------------------------|
G|--------4--------------4-------------4-------------------|
D|-6------4-(x8)-4-------4-(x3)-2------4-(x8)4------5------| 
A|-6-(x8)-2------4-(x12)-2------2-(x8)-2-----4-(x8)-5-(x8)-|
E|-4-------------2--------------0------------2------3------|

Guitar 2 - Overdrive
e|---------------------------------------------------------------------|
B|--------------------------------------------9-7---------9~7----------|
G|--------4--------------4-------------4----------8-6---------8-6------|
D|-6------4-(x8)-4-------4-(x3)-2------4-(x8)---------9-6---------9-6~-| 
A|-6-(x8)-2------4-(x12)-2------2-(x8)-2-------------------------------|
E|-4-------------2--------------0--------------------------------------|
Repeat until it finishes with 

Guitar 1 & 2 - Overdrive
e|-----------------------|
B|-----------------------|
G|-----------------------|
D|-6-6-6--6--6-6-6-6~----|
A|-6-6-6--6--6-6-6-6~----|
E|-4-4-4--4--4-4-4-4~----|

~ - Hold note

Any questions - pjthomas1995@hotmail.co.uk

Tabbed by Pat Thomas :)
Suggest correction
What's this?
You can suggest a correction to this tab. Community and Mods will review your correction and vote to approve or reject it.
comments
print report bad tab
1 comment total.
0 reply
pat_small 328 wrote on May 25 2013, 07:47 am

The pre chorus is not
e|----------------------------------|
B|----------------------------------|
G|----------4-4-----------4-4-------|
D|-6-6--6-6-4-4-4-4---6-6-4-4-2-2---|
A|-6-6--6-6-2-2-4-4---6-6-2-2-2-2---|
E|-4-4--4-4-----2-2---4-4-----0-0---|

It is in fact
e|----------------------------------|
B|----------------------------------|
G|----------4-4---------------4-4---|
D|-6-6--6-6-4-4-4-4---6-6-2-2-4-4---|
A|-6-6--6-6-2-2-4-4---6-6-2-2-2-2---|
E|-4-4--4-4-----2-2---4-4-0-0-------|

Sorry!

guest
You may want to rate the tab now too:
select rating
Please do not post tabs as comments. Select "correction" instead!