Oops, an error
Loading. Please wait.

Desperate Tab

version 2
version 2

Whole song

Interactive

1,260 views 1 this week
2 commentsread comments
1 2 3 4 5
1 last vote to show rating
add to favorites
launch autoscroll
font size
0
reset
how to read this tab
guitar tuner
Autoscroll
slow
fast
+/-
esc
set tempo
stop
Help us to improve Ultimate-Guitar.com Take our survey!
×
Author
Difficulty
Tuning
intermediate
C# G# C# F# A# D#
::Intro::  (0:00)
Eb|-----------------------------------------------------------------|
Bb|-----------------------------------------------------------------|
Gb|-----------------------------------------------------------------|
Db|---2-0-------------2-0-------------------------------------2-----|
Ab|-------2-0-2-0---------2-0-2---------5-0-7-5-0-5-4-0---0-4---0---|
Db|-2-------------2-5-----------5-4-0-0-----------------2-----------|

::Verse 1::  (0:06)  x2  "Seek and you will find, they say"
Eb|-----------------------------------------------------------------|
Bb|-----------------------------------------------------------------|
Gb|---------------------------------7-7-------------7-7-------7---7-|
Db|-2-2---x---x-x-x-5-5---x---x-x-x-7-7---x---x-x-x-7-7---x---7---7-|
Ab|-2-2---x---x-x-x-5-5---x---x-x-x-5-5---x---x-x-x-4-4---x---4---4-|
Db|-2-2---x---x-x-x-5-5---x---x-x-x-------x---x-x-x-------x---------|

::Interlude::  (0:19)
==Guitar 1==
Eb|-----------------------------------------------------------------|
Bb|-----------------------------------------------------------------|
Gb|-----------------------------------------------------------------|
Db|---2-0-------------2-0-------------------------------------2-----|
Ab|-------2-0-2-0---------2-0-2---------5-0-7-5-0-5-4-0---0-4---0---|
Db|-2-------------2-5-----------5-4-0-0-----------------2-----------|

==Guitar 2==
Eb|-----------------------------------------------------------------|
Bb|-----------------------------------------------------------------|
Gb|---------------------------------7---7---7---7---7---7---7---7---|
Db|-2---2---2---2---5---5---5---5---7---7---7---7---7---7---7---7---|
Ab|-2---2---2---2---5---5---5---5---5---5---5---5---4---4---4---4---|
Db|-2---2---2---2---5---5---5---5-----------------------------------|

::Verse 2::  (0:25)  x2  "I know there's so much at stake"
Eb|-----------------------------------------------------------------|
Bb|-----------------------------------------------------------------|
Gb|---------------------------------7-7-------------7-7-------7---7-|
Db|-2-2---x---x-x-x-5-5---x---x-x-x-7-7---x---x-x-x-7-7---x---7---7-|
Ab|-2-2---x---x-x-x-5-5---x---x-x-x-5-5---x---x-x-x-4-4---x---4---4-|
Db|-2-2---x---x-x-x-5-5---x---x-x-x-------x---x-x-x-------x---------|

::Pre-chorus::  (0:38)  "You've got me desperate"
Eb|---------------------------------|
Bb|---------------------------------|
Gb|-4-4-4-4-4-4-4-4-7-7-7-7-7-7-7-7-|
Db|-4-4-4-4-4-4-4-4-7-7-7-7-7-7-7-7-|
Ab|-2-2-2-2-2-2-2-2-5-5-5-5-5-5-5-5-|
Db|---------------------------------|

::Chorus::  (0:41)  x2  "I know You hear me, Would You give me a sign"
Eb|-----------------------------------------------------------------|
Bb|-----------------------------------------------------------------|
Gb|---------------------------------7---7---7---7-------------------|
Db|-2---2---2---2---5---5---5---5---7---7---7---7---7---7---7---7---|
Ab|-2---2---2---2---5---5---5---5---5---5---5---5---7---7---7---7---|
Db|-2---2---2---2---5---5---5---5-------------------7---7---7---7---|

Eb|-----------------------------------------------------------------|
Bb|-----------------------------------------------------------------|
Gb|---------------------------------7---7---7---7---7---7---7---7---|
Db|-2---2---2---2---5---5---5---5---7---7---7---7---7---7---7---7---|
Ab|-2---2---2---2---5---5---5---5---5---5---5---5---4---4---4---4---|
Db|-2---2---2---2---5---5---5---5-----------------------------------|

::Post-Chorus::  (1:07)
Eb|-----------------|
Bb|-----------------|
Gb|-----------------|
Db|-2-2-------------|
Ab|-2-2-------------|
Db|-2-2-------------|

::Verse 3::  (1:09)  x2  "I know You're my only hope"
Eb|-----------------------------------------------------------------|
Bb|-----------------------------------------------------------------|
Gb|---------------------------------7-7-------------7-7-------7---7-|
Db|-2-2---x---x-x-x-5-5---x---x-x-x-7-7---x---x-x-x-7-7---x---7---7-|
Ab|-2-2---x---x-x-x-5-5---x---x-x-x-5-5---x---x-x-x-4-4---x---4---4-|
Db|-2-2---x---x-x-x-5-5---x---x-x-x-------x---x-x-x-------x---------|

::Pre-chorus::  (1:22)  "You've got me desperate"
Eb|---------------------------------|
Bb|---------------------------------|
Gb|-4-4-4-4-4-4-4-4-7-7-7-7-7-7-7-7-|
Db|-4-4-4-4-4-4-4-4-7-7-7-7-7-7-7-7-|
Ab|-2-2-2-2-2-2-2-2-5-5-5-5-5-5-5-5-|
Db|---------------------------------|

::Chorus::  (1:25)  x2  "I know You hear me, Would You give me a sign"
Eb|-----------------------------------------------------------------|
Bb|-----------------------------------------------------------------|
Gb|---------------------------------7---7---7---7-------------------|
Db|-2---2---2---2---5---5---5---5---7---7---7---7---7---7---7---7---|
Ab|-2---2---2---2---5---5---5---5---5---5---5---5---7---7---7---7---|
Db|-2---2---2---2---5---5---5---5-------------------7---7---7---7---|

Eb|-----------------------------------------------------------------|
Bb|-----------------------------------------------------------------|
Gb|---------------------------------7---7---7---7---7---7---7---7---|
Db|-2---2---2---2---5---5---5---5---7---7---7---7---7---7---7---7---|
Ab|-2---2---2---2---5---5---5---5---5---5---5---5---4---4---4---4---|
Db|-2---2---2---2---5---5---5---5-----------------------------------|

::Bridge::  (1:51)
==Guitar 1==
Eb|-----------------------------------------------------------------|
Bb|-----------------------------------------------------------------|
Gb|-----------------------------------------------------------------|
Db|-5-5-5-5-4-4--0--------------------------------------------------|
Ab|-------------------------5-5-5-5---------2-2-2-2-----------------|
Db|-----------------2-0-2-----------2-0-2---------------------------|

Eb|---------------------------------|
Bb|---------------------------------|
Gb|---------------------------------|
Db|-5-5-5-5-4-4-4-4-5-5-5-5-7-7-7-7-|
Ab|---------------------------------|
Db|---------------------------------|

==Guitar 2==
Eb|-----------------------------------------------------------------|
Bb|-----------------------------------------------------------------|
Gb|-5-5-5-5-5-5-x---------------------------------------------------|
Db|-5-5-5-5-5-5-x-5---2-0-2------------2-0-2------------------------|
Ab|-3-3-3-3-3-3-x-5---2-0-2------------2-0-2------------------------|
Db|---------------5---2-0-2------------2-0-2------------------------|

Eb|---------------------------------|
Bb|---------------------------------|
Gb|-5-5-5-5-5-5-5-5-7-7-7-7-7-7-7-7-|
Db|-5-5-5-5-5-5-5-5-7-7-7-7-7-7-7-7-|
Ab|-3-3-3-3-3-3-3-3-5-5-5-5-5-5-5-5-|
Db|---------------------------------|

::Interlude::  (2:04)
==Guitar 1==
Eb|-----------------------------------------------------------------|
Bb|-----------------------------------------------------------------|
Gb|-----------------------------------------------------------------|
Db|---2-0-------------2-0-------------------------------------2-----|
Ab|-------2-0-2-0---------2-0-2---------5-0-7-5-0-5-4-0---0-4---0---|
Db|-2-------------2-5-----------5-4-0-0-----------------2-----------|

==Guitar 2==
Eb|-----------------------------------------------------------------|
Bb|-----------------------------------------------------------------|
Gb|---------------------------------7-7-----7-7-----7-7-----7-7-----|
Db|---------------------------------7-7-----7-7-----7-7-----7-7-----|
Ab|---------------------------------5-5-----5-5-----4-4-----4-4-----|
Db|-----------------------------------------------------------------|

::Chorus::  (2:10)  x4  "I know You hear me, Would You give me a sign"
Eb|-----------------------------------------------------------------|
Bb|-----------------------------------------------------------------|
Gb|---------------------------------7---7---7---7-------------------|
Db|-2---2---2---2---5---5---5---5---7---7---7---7---7---7---7---7---|
Ab|-2---2---2---2---5---5---5---5---5---5---5---5---7---7---7---7---|
Db|-2---2---2---2---5---5---5---5-------------------7---7---7---7---|

Eb|-----------------------------------------------------------------|
Bb|-----------------------------------------------------------------|
Gb|---------------------------------7---7---7---7---7---7---7---7---|
Db|-2---2---2---2---5---5---5---5---7---7---7---7---7---7---7---7---|
Ab|-2---2---2---2---5---5---5---5---5---5---5---5---4---4---4---4---|
Db|-2---2---2---2---5---5---5---5-----------------------------------|

::Interlude::  (2:48)
==Guitar 1==
Eb|-------------------------------------|
Bb|-------------------------------------|
Gb|-------------------------------------|
Db|---2-0-------------2-0---------------|
Ab|-------2-0-2-0---------2-0-2---------|
Db|-2-------------2-5-----------5-4-0-2-|

==Guitar 2==
Eb|-------------------------------------|
Bb|-------------------------------------|
Gb|-------------------------------------|
Db|---------------------------------0-2-|
Ab|---------------------------------0-2-|
Db|---------------------------------0-2-|

Thanks for reading! This tab is completely correct in my opinion, but if you think i 
up somewhere, leave me a comment! ~Rulerof52
Suggest correction
Give kudos to tab author, rate the tab!
1 2 3 4 5
comments
print report bad tab
2 comments total.
0 reply
caedus5 93 Mar 21, 2010 12:31 PM

the intro is wrong

0 reply
Rulerof52 426 Jan 25, 2014 08:25 PM

@caedus5 no. it's not.

guest
You may want to rate the tab now too:
select rating
Wanna post a correction for this tab? Suggest correction