Oops, an error
Loading. Please wait.

Desperate Tab

version 3
version 3

Whole song

Interactive

6,467 views 3 this week
2 commentsread comments
1 2 3 4 5
excellent!
x 7
add to favorites
launch autoscroll
font size
0
reset
how to read this tab
guitar tuner
Tab Pro tools
  • play this tab
  • loop segment
  • change instrument
  • show fretboard
  • metronome
×
Best way to learn
"Desperate"
Autoscroll
slow
fast
+/-
esc
set tempo
stop
Contributor
Difficulty
Tuning
intermediate
C# G# C# F# A# D#
(Intro)  (0:00)
D#|-----------------------------------------------------------------|
A#|-----------------------------------------------------------------|
F#|-----------------------------------------------------------------|
C#|---2-0---------------2-0-----------------------------------------|
G#|-------2-0-2-------------2-0-2---------5-0-7-5-0-5-4-0---0-4-7-0-|
C#|-2-------------5-0-2-----------5-4-0-0-----------------2---------|

(Verse 1)  (0:06)  x2  
D#|-----------------------------------------------------------------|
A#|-----------------------------------------------------------------|
F#|---------------------------------7-7-------------7-7-------7---7-|
C#|-2-2---x---x-x-x-5-5---x---x-x-x-7-7---x---x-x-x-7-7---x---7---7-|
G#|-2-2---x---x-x-x-5-5---x---x-x-x-5-5---x---x-x-x-4-4---x---4---4-|
C#|-2-2---x---x-x-x-5-5---x---x-x-x-------x---x-x-x-------x---------|

(Interlude)  (0:19)
-Guitar 1-
D#|-------------------------------------------------------------------|
A#|-------------------------------------------------------------------|
F#|-------------------------------------------------------------------|
C#|---2-0---------------2-0-------------------------------------------|
G#|-------2-0-2-------------2-0-2---------5-0-7-5-0-5-4-0---0-4-7-0---|
C#|-2-------------5-0-2-----------5-4-0-0-----------------2-----------|

-Guitar 2-
D#|-----------------------------------------------------------------|
A#|-----------------------------------------------------------------|
F#|---------------------------------7---7---7---7---7---7---7---7---|
C#|-2---2---2---2---5---5---5---5---7---7---7---7---7---7---7---7---|
G#|-2---2---2---2---5---5---5---5---5---5---5---5---4---4---4---4---|
C#|-2---2---2---2---5---5---5---5-----------------------------------|

(Verse 2)  (0:25)  x2  
D#|-----------------------------------------------------------------|
A#|-----------------------------------------------------------------|
F#|---------------------------------7-7-------------7-7-------7---7-|
C#|-2-2---x---x-x-x-5-5---x---x-x-x-7-7---x---x-x-x-7-7---x---7---7-|
G#|-2-2---x---x-x-x-5-5---x---x-x-x-5-5---x---x-x-x-4-4---x---4---4-|
C#|-2-2---x---x-x-x-5-5---x---x-x-x-------x---x-x-x-------x---------|

(Pre-chorus)  (0:38)  
D#|---------------------------------|
A#|---------------------------------|
F#|-4-4-4-4-4-4-4-4-7-7-7-7-7-7-7-7-|
C#|-4-4-4-4-4-4-4-4-7-7-7-7-7-7-7-7-|
G#|-2-2-2-2-2-2-2-2-5-5-5-5-5-5-5-5-|
C#|---------------------------------|

(Chorus)  (0:41)  x2   
D#|-----------------------------------------------------------------|
A#|-----------------------------------------------------------------|
F#|---------------------------------7---7---7---7-------------------|
C#|-2---2---2---2---5---5---5---5---7---7---7---7---7---7---7---7---|
G#|-2---2---2---2---5---5---5---5---5---5---5---5---7---7---7---7---|
C#|-2---2---2---2---5---5---5---5-------------------7---7---7---7---|

D#|-----------------------------------------------------------------|
A#|-----------------------------------------------------------------|
F#|---------------------------------7---7---7---7---7---7---7---7---|
C#|-2---2---2---2---5---5---5---5---7---7---7---7---7---7---7---7---|
G#|-2---2---2---2---5---5---5---5---5---5---5---5---4---4---4---4---|
C#|-2---2---2---2---5---5---5---5-----------------------------------|


(Post-Chorus)  (1:07)
D#|-----------------|
A#|-----------------|
F#|-----------------|
C#|-2-2-------------|
G#|-2-2-------------|
C#|-2-2-------------|

(Verse 3)  (1:09)  x2  
D#|-----------------------------------------------------------------|
A#|-----------------------------------------------------------------|
F#|---------------------------------7-7-------------7-7-------7---7-|
C#|-2-2---x---x-x-x-5-5---x---x-x-x-7-7---x---x-x-x-7-7---x---7---7-|
G#|-2-2---x---x-x-x-5-5---x---x-x-x-5-5---x---x-x-x-4-4---x---4---4-|
C#|-2-2---x---x-x-x-5-5---x---x-x-x-------x---x-x-x-------x---------|


(Pre-chorus)  (1:22)  
D#|---------------------------------|
A#|---------------------------------|
F#|-4-4-4-4-4-4-4-4-7-7-7-7-7-7-7-7-|
C#|-4-4-4-4-4-4-4-4-7-7-7-7-7-7-7-7-|
G#|-2-2-2-2-2-2-2-2-5-5-5-5-5-5-5-5-|
C#|---------------------------------|

(Chorus)  (1:25)  x2   
D#|-----------------------------------------------------------------|
A#|-----------------------------------------------------------------|
F#|---------------------------------7---7---7---7-------------------|
C#|-2---2---2---2---5---5---5---5---7---7---7---7---7---7---7---7---|
G#|-2---2---2---2---5---5---5---5---5---5---5---5---7---7---7---7---|
C#|-2---2---2---2---5---5---5---5-------------------7---7---7---7---|

D#|-----------------------------------------------------------------|
A#|-----------------------------------------------------------------|
F#|---------------------------------7---7---7---7---7---7---7---7---|
C#|-2---2---2---2---5---5---5---5---7---7---7---7---7---7---7---7---|
G#|-2---2---2---2---5---5---5---5---5---5---5---5---4---4---4---4---|
C#|-2---2---2---2---5---5---5---5-----------------------------------|

(Bridge)  (1:51)
-Guitar 1-
D#|-----------------------------------------------------------------|
A#|-----------------------------------------------------------------|
F#|-----------------------------------------------------------------|
C#|-12-12-12-12-11-11-7---------------------------------------------|
G#|-10-10-10-10-9--9--5-----------5-5-5-5---------2-2-2-2-----------|
C#|----------------------2-0-2-------------2-0-2--------------------|


-Guitar 2-
D#|-----------------------------------------------------------------|
A#|-----------------------------------------------------------------|
F#|-5-5-5-5-5-5-x---------------------------------------------------|
C#|-5-5-5-5-5-5-x-5---2-0-2------------2-0-2------------------------|
G#|-3-3-3-3-3-3-x-5---2-0-2------------2-0-2------------------------|
C#|---------------5---2-0-2------------2-0-2------------------------|


(Interlude)  (2:04)
-Guitar 1-
D#|-----------------------------------------------------------------|
A#|-----------------------------------------------------------------|
F#|-----------------------------------------------------------------|
C#|---2-0---------------2-0-----------------------------------------|
G#|-------2-0-2-------------2-0-2---------5-0-7-5-0-5-4-0---0-4-7-0-|
C#|-2-------------5-0-2-----------5-4-0-0-----------------2---------|

-Guitar 2-
D#|-----------------------------------------------------------------|
A#|-----------------------------------------------------------------|
F#|---------------------------------7-7-----7-7-----7-7-----7-7-----|
C#|---------------------------------7-7-----7-7-----7-7-----7-7-----|
G#|---------------------------------5-5-----5-5-----4-4-----4-4-----|
C#|-----------------------------------------------------------------|

(Chorus)  (2:10)  x4   
D#|-----------------------------------------------------------------|
A#|-----------------------------------------------------------------|
F#|---------------------------------7---7---7---7-------------------|
C#|-2---2---2---2---5---5---5---5---7---7---7---7---7---7---7---7---|
G#|-2---2---2---2---5---5---5---5---5---5---5---5---7---7---7---7---|
C#|-2---2---2---2---5---5---5---5-------------------7---7---7---7---|

D#|-----------------------------------------------------------------|
A#|-----------------------------------------------------------------|
F#|---------------------------------7---7---7---7---7---7---7---7---|
C#|-2---2---2---2---5---5---5---5---7---7---7---7---7---7---7---7---|
G#|-2---2---2---2---5---5---5---5---5---5---5---5---4---4---4---4---|
C#|-2---2---2---2---5---5---5---5-----------------------------------|

(Interlude)  (2:48)
-Guitar 1-
D#|---------------------------------------|
A#|---------------------------------------|
F#|---------------------------------------|
C#|---2-0---------------2-0---------------|
G#|-------2-0-2-------------2-0-2---------|
C#|-2-------------5-0-2-----------5-4-0-2-|


-Guitar 2-
D#|-------------------------------------|
A#|-------------------------------------|
F#|-------------------------------------|
C#|---------------------------------0-2-|
G#|---------------------------------0-2-|
C#|---------------------------------0-2-|
comments
print report bad tab
2 comments total.
-1 reply
caedus5 wrote on March 16 2010, 09:44 pm

I don't think the chords change during the chorus.

+1 reply
ryan_guitarist wrote on March 27 2010, 05:16 pm

I'm pretty sure they do. Good tab, I think it's almost 100% accurate.

I want to post or [tab]
guest
You may want to rate the tab now too:
select rating
Please do not post tabs as comments. Select "correction" instead!