Oops, an error
Loading. Please wait.

Fill Me Bass Tab

1,469 views 1 this week
no commentswrite comment
1 2 3 4 5
please rate
add to favorites
launch autoscroll
font size
0
reset
guitar tuner
Autoscroll
slow
fast
+/-
esc
set tempo
stop
Help us to improve Ultimate-Guitar.com Take our survey!
×
Difficulty
novice
Artist:Fireflight
Title: Fill me...
Submitted by: Flong
Trial and error

intro: Lead guitar...

Chords : P-Chords... (E-F#-D-E)

0:16 (verse;chorus)
G|---------------------|---------------------|----------------------|
D|---------------------|---------------------|----------------------|
A|-7-7-7-7-7-7-7-7-7-7-|---------------------|-35-5-5-5-5-5-5-5-5-5-|
E||--------------------|-7-7-7-7-7-7-7-7-7-7-|----------------------|

G|-------------------------------------------|
D|-------------------------------------------|
A|-------------------------------------------|
E|-7-7-7-7-7-7-7-7-7-7-0-7-7-7-7-7-7-7-7-7-7-|

4:00 (bridge)
G|--------------|-------------|-------------|---------------|
D|--------------|-------------|-------------|---------------|
A|-7-7~---7-7~-7|-------------|7-7~---7-7~-7|-5-5~---5-5~-5-|
E|--------------|7-7~---7-7~-7|-------------|---------------|

G|---------------------|---------------------|----------------------|---|
D|---------------------|---------------------|----------------------|---|
A|-7-7-7-7-7-7-7-7-7-7-|---------------------|-35-5-5-5-5-5-5-5-5-5-|-7~|
E|---------------------|-7-7-7-7-7-7-7-7-7-7-|----------------------|---|




End....
Plz Rate....!!!! Love this song...so SIMPLE beat!!!
Suggest correction
Give kudos to tab author, rate the tab!
1 2 3 4 5
comments
print report bad tab
guest
You may want to rate the tab now too:
select rating
Wanna post a correction for this tab? Suggest correction