Oops, an error
Loading. Please wait.

Fire In My Eyes Tab

version 2
version 2

Whole song

Interactive

448 views 1 this week
no commentswrite comment
1 2 3 4 5
please rate
add to favorites
launch autoscroll
font size
0
reset
how to read this tab
guitar tuner
Tab Pro tools
  • play this tab
  • loop segment
  • change instrument
  • show fretboard
  • metronome
×
Best way to learn
"Fire In My Eyes"
Autoscroll
slow
fast
+/-
esc
set tempo
stop
Contributor
Difficulty
Tuning
intermediate
C# G# C# F# A# D#
                           ~Fire in my Eyes~
                             ~Fireflight~

Tuning~Drop C#


Intro/Main Riff   2x

                                             | second time
E--------------------------------------------|-----------------------------|
B--------------------------------------------|-----------------------------|
G--------------------------------------------|-----------------------------|
D--0-2--5-2--0-2--5-2--0-2--5-2--0-2--5-2-7--|---5-7-7---------------------|
A--0-2--5-2--0-2--5-2--0-2--5-2--0-2--5-2-7--|---5-7-7---------------------|
E--0-2--5-2--0-2--5-2--0-2--5-2--0-2--5-2-7--|---5-7-7---------------------|


Verse~No guitar


Chorus  3x

.."Eyes..."                        "I'm burning..."
E--------------------------------------------------------------------------|
B--------------------------------------------------------------------------|
G--7-9-9--7-9--7-9--7-9-7-9-12-9-------------------------------------------|
D--7-9-9--7-9--7-9--7-9-7-9-12-9--5-5-5-5-7-7-7-7--------------------------|
A--5-7-7--5-7--5-7--5-7-5-7-10-7--5-5-5-5-7-7-7-7--------------------------|
E---------------------------------5-5-5-5-7-7-7-7--------------------------|


..."First time, you ignite..."
E--------------------------------------------------------------------------|
B--------------------------------------------------------------------------|
G---5-5-5-5-5-5-5-5-7-7-7-7-7-7-7-7----------------------------------------|
D---5-5-5-5-5-5-5-5-7-7-7-7-7-7-7-7----------------------------------------|
A---3-3-3-3-3-3-3-3-5-5-5-5-5-5-5-5----------------------------------------|
E--------------------------------------------------------------------------|


Verse~No guitar


Now, for the bridge there is no guitar, so
I decided to make up something to play with it.
Every time she sings a note, play a harmonic.
Here it is.

Bridge

 " Oh,  I know  you are the rea-son I can breathe "
E--------------------------------------------------------------------------|
B--12------------12--------------12----------------------------------------|
G-------7----------------12------------12----------------------------------|
D---------7------------------7-------7-------------------------------------|
A--------------------7---------------------7-------------------------------|
E--------------------------------------------------------------------------|
   nh  nh nh     nh  nh  nh  nh  nh  nh nh nh

 " Oh,  I know  you are the rea-son I  am    free "
E--------------------------------------------------------------------------|
B--12------------12--------------------------12----------------------------|
G-------7----------------12-----12-----12----------------------------------|
D---------7------------------7------7--------------------------------------|
A--------------------7-----------------------------------------------------|
E--------------------------------------------------------------------------|
   nh  nh nh     nh  nh  nh  nh nh  nh nh    nh


You don't HAVE to play it. I just thought
that it would be better than just sitting
there doing nothing.


Guitar thing after bridge  4x


E--------------------------------------------------------------------------|
B--------------------------------------------------------------------------|
G--------------------------------------------------------------------------|
D--------------------------------------------------------------------------|
A--------------------------------------------------------------------------|
E--0-2-2--0-2--0-2--0-2-0-0-2-0--------------------------------------------|


Chorus


Outro   2x

                                           | Last thing played
E------------------------------------------|-------------------------------|
B------------------------------------------|-------------------------------|
G------------------------------------------|-------------------------------|
D--0-2--5-2--0-2--5-2--0-2--5-2--0-2--5-2-7|-------2-5-7-------------------|
A--0-2--5-2--0-2--5-2--0-2--5-2--0-2--5-2-7|-------2-5-7-------------------|
E--0-2--5-2--0-2--5-2--0-2--5-2--0-2--5-2-7|-------2-5-7-------------------|

All done! This is a pretty easy song to play (in my opinion)
so I hope you enjoy learning it. Don't forget to rate and
comment if you have anything to say. Thanks.

 
                               ~LEGEND~
                  
                            nh~Natural Harmonic
                   
                            
comments
We did not receive enough feedback on this tab! Please rate:
print report bad tab
1 2 3 4 5
I want to post or [tab]
guest
You may want to rate the tab now too:
select rating
Please do not post tabs as comments. Select "correction" instead!