Oops, an error
Loading. Please wait.

Forever Tab

version 1
version 1

Whole song

Interactive

14,777 views 9 this week
2 commentsread comments
1 2 3 4 5
excellent!
x 6
add to favorites
launch autoscroll
font size
0
reset
how to read this tab
guitar tuner
Tab Pro tools
  • play this tab
  • loop segment
  • change instrument
  • show fretboard
  • metronome
Autoscroll
slow
fast
+/-
esc
set tempo
stop
Contributor
Song: Forever
Band: Fireflight
Album: Unbreakable
Tabbed by: Cody 
Email: cjmeserole@yahoo.com

Tuning: drop C# (Db, if you prefer) C#G#C#F#A#D# (Db Ab Db Gb Bb eb)

EDIT 5/14/10: updated the intro 

Intro and Verse:
(clean)
e|------------------------------|
B|--------------------0~~-------|
G|------------------3-----------|
D|------6-h8~~------------------| X a lot lol
A|----6-----------4-------------|
E|--6-----------4---------------|

"been stuck for way too long..."
e|------------------------------------------------------|-(dist.)-|
B|------------------------------------------------------|---------|
G|------------------------------------------------------|---------|
D|--2-2-2-2-2-2-2-2--4-4-4-4-4-4-4-4--2-2-2-2-2-2-2-2---|--4~-----|
A|--2-2-2-2-2-2-2-2--4-4-4-4-4-4-4-4--2-2-2-2-2-2-2-2---|--4~-----|
E|--2-2-2-2-2-2-2-2--4-4-4-4-4-4-4-4--2-2-2-2-2-2-2-2---|--4~-----|


Chorus:

"Oh, tell me You're here..."
e|----------------------------------------------|----------------------|
B|----------------------------------------------|----------------------|
G|----------------------------------------------|----------------------|
D|--6-----2-----4-----9-9-9-9-8-8-8-8------(x2)-|-2-2-2-2-2-2-2-2--4~--|
A|--6-x8--2-x8--4-x8--9-9-9-9-8-8-8-8-----------|-2-2-2-2-2-2-2-2--4~--|
E|--6-----2-----4-----9-9-9-9-8-8-8-8-----------|-2-2-2-2-2-2-2-2--4~--|

Chorus Lead:
(I'm not 100% about this, cause it's REALLY hard to hear, but it's something like this)
e|-------------------------------------|
B|--/12-11-9-7~~-7h9-/12-11-9-7~~------|
G|-------------------------------------|
D|-------------------------------------|
A|-------------------------------------|
E|-------------------------------------|

Verse 2 is the same as Verse 1, except the second part ("been fighting way too long...") 
is distorted and palm muted instead of clean strumming 
 
the lead plays this part different too:

"I need to catch myself..."
(elevens, not 1's)
e|-----------------------------------------------------------------------|
B|--12121212121212121212121212121212-111111111111111111111111111111111---|
G|-----------------------------------------------------------------------| X2
D|-----------------------------------------------------------------------|
A|-----------------------------------------------------------------------|
E|-----------------------------------------------------------------------|



Repeat Chorus

Bridge:
I have no idea what the lead part is here, cause again, it's QUIET!
e|---------------------------------------------------------------------------|
B|---------------------------------------------------------------------------|
G|---------------------------------------------------------------------------|
D|-1-----2-----9-----8-----1-----2-----4-----8----8-8-9-9~-------------------|
A|-1-x8--2-x8--9-x8--8-x8--1-x8--2-x8--4-x8--8-x8-8-8-9-9~-------------------|
E|-1-----2-----9-----8-----1-----2-----4-----8----8-8-9-9~-------------------|


Final Chorus:

e|---(clean)-------------|-(dist.)-------------|
B|-----------------------|---------------------|
G|-----------------------|---------------------|
D|-----6~-----2~-----4~--|--9-9-9-9-8-8-8-8----|
A|---6~-----2~-----4~----|--9-9-9-9-8-8-8-8----|
E|-6~-----2~-----4~------|--9-9-9-9-8-8-8-8----|

"Oh, take hold of my heart..."
e|----------------------------------------------|----------------------|
B|----------------------------------------------|----------------------|
G|----------------------------------------------|----------------------|
D|--6-----2-----4-----9-9-9-9-8-8-8-8------(x3)-|-2-2-2-2-2-2-2-2--4~--|
A|--6-x8--2-x8--4-x8--9-9-9-9-8-8-8-8-----------|-2-2-2-2-2-2-2-2--4~--|
E|--6-----2-----4-----9-9-9-9-8-8-8-8-----------|-2-2-2-2-2-2-2-2--4~--|

Chorus Lead:
(again, not sure)
e|-------------------------------------|
B|--/12-11-9-7~~-7h9-/12-11-9-7~~------|
G|-------------------------------------|
D|-------------------------------------|
A|-------------------------------------|
E|-------------------------------------|

The end!  It's a really simple song, and really beautiful as well =)  enjoy and God bless!
| /  slide up
| \  slide down
| h  hammer-on
| p  pull-off
| ~  vibrato
| +  harmonic
| x  Mute note
===============================================================================
comments
print report bad tab
2 comments total.
0 reply
kingfootpie wrote on March 24 2010, 09:45 pm

Bridge:
e|---------------------------------------------------------------------------|
B|---------------------------------------------------------------------------|
G|---------------------------------------------------------------------------|
D|-1-----2-----9-----4-----1-----2-----4-----5----5-5-8~-------------------|
A|-1-x8--2-x8--9-x8--4-x8--1-x8--2-x8--4-x8--6-x4-6-6-8~-------------------|
E|-1-----2-----9-----4-----1-----2-----4-----5----5-5-8~-------------------|

0 reply
GuitarGuy829 wrote on February 10 2012, 06:43 pm

Great tab! But I think the bridge is a little different. Kingfootpie is right, but I disagree with the:


D-5-/
A-6-/
E-5-/

It just doesn't sounds right. Either way, AWESOME tab!

I want to post or [tab]
guest
You may want to rate the tab now too:
select rating
Please do not post tabs as comments. Select "correction" instead!