Oops, an error
Loading. Please wait.

Liar Tab

version 1
version 1

Whole song

Interactive

2,030 views 3 this week
no commentswrite comment
1 2 3 4 5
2 more votes to show rating
add to favorites
launch autoscroll
font size
0
reset
how to read this tab
guitar tuner
Autoscroll
slow
fast
+/-
esc
set tempo
stop
Help us to improve Ultimate-Guitar.com Take our survey!
×
Author
Difficulty
Tuning
novice
C# G# C# F# A# D#
-------------------------------------------------------------------------------
                             Liar - Fireflight
-------------------------------------------------------------------------------
Tabbed by: josiebruinbear


Tuning:Rhythm(C#-G#-C#-F#-A#-D#)  Lead(C#-G#-C#-F#-A#-D#)

I think the two guitars do pretty much the same thing through most of the song, so I 
it could be played with one guitar just fine

Rhythm Guitar

Intro:
                        |     Repeat this part 3 times
D#----------------------|---------------------------------|
A#----------------------|---------------------------------|
F#----------------------|---------------------------------|
C#--0-0-0-0-0-0-0-X-X---|--0-0-0h2-2-2/3-3-3\2-2-2--------|
G#--0-0-0-0-0-0-0-X-X---|--0-0-0h2-2-2/3-3-3\2-2-2--------|
C#--0-0-0-0-0-0-0-X-X---|--0-0-0h2-2-2/3-3-3\2-2-2--------|

D#--------------------------------------------------------|
A#--------------------------------------------------------|
F#--7-7-7-7-7-7-7-7-7-7-7-7-7-7-7-7-----------------------|
C#--7-7-7-7-7-7-7-7-7-7-7-7-7-7-7-7-----------------------|
G#--5-5-5-5-5-5-5-5-5-5-5-5-5-5-5-5-----------------------|
C#--------------------------------------------------------|

Verse 1

The whole verse is Palm Muted, listen to song for better rhythm.

"Empty prayers falling out your mouth
Jesus said it better and He didn't have to shout"

D#-----------------------------------------------------------|
A#-----------------------------------------------------------|
F#-----------------------------------------------------------|
C#--0-0-0-0-0-0----0-0-0-0-0-0----0-0-0-0-0-0----0-0-0-0-0-0-|
G#--0-0-0-0-0-0----0-0-0-0-0-0----0-0-0-0-0-0----0-0-0-0-0-0-|
C#--0-0-0-0-0-0----0-0-0-0-0-0----0-0-0-0-0-0----0-0-0-0-0-0-|

"Maybe if you change it you can get your way
Just rearrange it and you can get paid"

D#-----------------------------------------------------------|
A#-----------------------------------------------------------|
F#-----------------------------------------------------------|
C#--5-5-5-5-5-5----5-5-5-5-5-5----0-0-0-0-0-0----0-0-0-0-0-0-|
G#--5-5-5-5-5-5----5-5-5-5-5-5----0-0-0-0-0-0----0-0-0-0-0-0-|
C#--5-5-5-5-5-5----5-5-5-5-5-5----0-0-0-0-0-0----0-0-0-0-0-0-|

"A little more money comes in every day
Faith and five dollars goes a long way"

D#-----------------------------------------------------------|
A#-----------------------------------------------------------|
F#-----------------------------------------------------------|
C#--0-0-0-0-0-0----0-0-0-0-0-0----0-0-0-0-0-0----0-0-0-0-0-0-|
G#--0-0-0-0-0-0----0-0-0-0-0-0----0-0-0-0-0-0----0-0-0-0-0-0-|
C#--0-0-0-0-0-0----0-0-0-0-0-0----0-0-0-0-0-0----0-0-0-0-0-0-|

"Look at your pockets filled up with gold
But what's in your heart is making you cold"

D#-----------------------------------------------------------|
A#-----------------------------------------------------------|
F#-----------------------------------------------------------|
C#--5-5-5-5-5-5----5-5-5-5-5-5----0-0-0-0-0-0----0-0-0-0-0-0-|
G#--5-5-5-5-5-5----5-5-5-5-5-5----0-0-0-0-0-0----0-0-0-0-0-0-|
C#--5-5-5-5-5-5----5-5-5-5-5-5----0-0-0-0-0-0----0-0-0-0-0-0-|

Chorus:

Once again, for better rhythm, listen to the song

"I'm sick of all your lies (It's who you are) We see through your disguise"

D#----------------------------------------------------------------|
A#----------------------------------------------------------------|
F#----------------------------------------------------------------|
C#--5-5-5-2-3-2-0-Let the 0 ring----5-5-5-2-3-2-0-Let the 0 ring--|
G#--5-5-5-2-3-2-0-Let the 0 ring----5-5-5-2-3-2-0-Let the 0 ring--|
C#--5-5-5-2-3-2-0-Let the 0 ring----5-5-5-2-3-2-0-Let the 0 ring--|

Verse 2

This part of the verse is Palm Muted.

"All that I see when you start to cry
Is the rock on your finger and gleam in your eye"

D#-----------------------------------------------------------|
A#-----------------------------------------------------------|
F#-----------------------------------------------------------|
C#--0-0-0-0-0-0----0-0-0-0-0-0----0-0-0-0-0-0----0-0-0-0-0-0-|
G#--0-0-0-0-0-0----0-0-0-0-0-0----0-0-0-0-0-0----0-0-0-0-0-0-|
C#--0-0-0-0-0-0----0-0-0-0-0-0----0-0-0-0-0-0----0-0-0-0-0-0-|

"Your sad story is making me sick.
So change the channel cause it's getting thick."

D#-----------------------------------------------------------|
A#-----------------------------------------------------------|
F#-----------------------------------------------------------|
C#--5-5-5-5-5-5----5-5-5-5-5-5----0-0-0-0-0-0----0-0-0-0-0-0-|
G#--5-5-5-5-5-5----5-5-5-5-5-5----0-0-0-0-0-0----0-0-0-0-0-0-|
C#--5-5-5-5-5-5----5-5-5-5-5-5----0-0-0-0-0-0----0-0-0-0-0-0-|

The rhythm changes right here, but it's still the same chords, and I don't think it's 
Muted anymore.

"Blind accusations are all you can say
But you'll say anything as long as you're paid"

D#-----------------------------------------------------------|
A#-----------------------------------------------------------|
F#-----------------------------------------------------------|
C#--0-0-0-0-0-0----0-0-0-0-0-0----0-0-0-0-0-0----0-0-0-0-0-0-|
G#--0-0-0-0-0-0----0-0-0-0-0-0----0-0-0-0-0-0----0-0-0-0-0-0-|
C#--0-0-0-0-0-0----0-0-0-0-0-0----0-0-0-0-0-0----0-0-0-0-0-0-|

"Look for their weakness you feed on their need
but behind your eyes is nothing but greed"

D#-----------------------------------------------------------|
A#-----------------------------------------------------------|
F#-----------------------------------------------------------|
C#--5-5-5-5-5-5----5-5-5-5-5-5----0-0-0-0-0-0----0-0-0-0-0-0-|
G#--5-5-5-5-5-5----5-5-5-5-5-5----0-0-0-0-0-0----0-0-0-0-0-0-|
C#--5-5-5-5-5-5----5-5-5-5-5-5----0-0-0-0-0-0----0-0-0-0-0-0-|

Chorus:

"I'm sick of all your lies (It's who you are) We see through your disguise"

D#----------------------------------------------------------------|
A#----------------------------------------------------------------|
F#----------------------------------------------------------------|
C#--5-5-5-2-3-2-0-Let the 0 ring----5-5-5-2-3-2-0-Let the 0 ring--|
G#--5-5-5-2-3-2-0-Let the 0 ring----5-5-5-2-3-2-0-Let the 0 ring--|
C#--5-5-5-2-3-2-0-Let the 0 ring----5-5-5-2-3-2-0-Let the 0 ring--|

"None of your dreams come true (It’s time you know) You can’t sell the truth"

D#----------------------------------------------------------------|
A#----------------------------------------------------------------|
F#----------------------------------------------------------------|
C#--5-5-5-2-3-2-0-Let the 0 ring----5-5-5-2-3-2-0-Let the 0 ring--|
G#--5-5-5-2-3-2-0-Let the 0 ring----5-5-5-2-3-2-0-Let the 0 ring--|
C#--5-5-5-2-3-2-0-Let the 0 ring----5-5-5-2-3-2-0-Let the 0 ring--|

  (Let the 0s ring)
D#--------------------|
A#--------------------|
F#--------------------|
C#--2-3-2-0----2-3-2-0|
G#--2-3-2-0----2-3-2-0|
C#--2-3-2-0----2-3-2-0|

Bridge:

(Palm mute here, and repeat 4 times)

"You party and dine with the fattest of swine,
But your stink can’t hide behind closed doors,
Get your hands off my face, I won’t shudder and shake
What you’re selling, I won’t buy anymore"

D#---------------------------|
A#---------------------------|
F#---------------------------|
C#--0-0-0h2-2-2/3-3-3\2-3-2--|
G#--0-0-0h2-2-2/3-3-3\2-3-2--|
C#--0-0-0h2-2-2/3-3-3\2-3-2--|

(Don't Palm Mute on this next part)

"Why do you lie to make me love you?
Is it your insecurity?
Have fun with your selfish ways and misguided thoughts
Cause you will always be . . . liar "

          |(Repeat 3 times)        |
D#--------|------------------------|------------------|
A#--------|------------------------|------------------|
F#--------|------------------------|------------------|
C#--2-3-2-|-0-0-0h2-2-2/3-3-3\2-3-2|0-0-0h2-2-2/3-3-3-|
G#--2-3-2-|-0-0-0h2-2-2/3-3-3\2-3-2|0-0-0h2-2-2/3-3-3-|
C#--2-3-2-|-0-0-0h2-2-2/3-3-3\2-3-2|0-0-0h2-2-2/3-3-3-|

Chorus:

"I'm sick of all your lies (It's who you are) We see through your disguise"

D#----------------------------------------------------------------|
A#----------------------------------------------------------------|
F#----------------------------------------------------------------|
C#--5-5-5-2-3-2-0-Let the 0 ring----5-5-5-2-3-2-0-Let the 0 ring--|
G#--5-5-5-2-3-2-0-Let the 0 ring----5-5-5-2-3-2-0-Let the 0 ring--|
C#--5-5-5-2-3-2-0-Let the 0 ring----5-5-5-2-3-2-0-Let the 0 ring--|

(This time, instead of letting the 0s ring, palm mute them, and strum it four times)

"None of your dreams come true (It’s time you know) You can’t sell the truth"

D#-------------------------------------------------|
A#-------------------------------------------------|
F#-------------------------------------------------|
C#--5-5-5-2-3-2-0-0-0-0-2-3-2-5-5-5-2-3-2-0-0-0-0--|
G#--5-5-5-2-3-2-0-0-0-0-2-3-2-5-5-5-2-3-2-0-0-0-0--|
C#--5-5-5-2-3-2-0-0-0-0-2-3-2-5-5-5-2-3-2-0-0-0-0--|

Outro:

(Palm Muted)

"Truth..liar...liar...liar..liar!"

D#------------------------------------------------------|
A#------------------------------------------------------|
F#------------------------------------------------------|
C#--0-0-0h2-2-2/3-3-3\2-3-2----0-0-0h2-2-2/3-3-3\2-3-2--|
G#--0-0-0h2-2-2/3-3-3\2-3-2----0-0-0h2-2-2/3-3-3\2-3-2--|
C#--0-0-0h2-2-2/3-3-3\2-3-2----0-0-0h2-2-2/3-3-3\2-3-2--|

Lead Guitar

Intro:
                        |     Repeat this part 3 times
D#----------------------|---------------------------------|
A#----------------------|---------------------------------|
F#----------------------|---------------------------------|
C#--0-0-0-0-0-0-0-X-X---|--7-7-7h9-9-9/10-10-10\9-9-------|
G#--0-0-0-0-0-0-0-X-X---|---------------------------------|
C#--0-0-0-0-0-0-0-X-X---|---------------------------------|

D#--------------------------------------------------------|
A#--------------------------------------------------------|
F#--------------------------------------------------------|
C#--0-0-0-0-0-0-0-0-0-0-0-0-0-0-0-0-----------------------|
G#--------------------------------------------------------|
C#--------------------------------------------------------|

Verse 1 and 2, same as rhythm guitar.

Chorus:

Play this for all the choruses.

D#----------------------------------------------------------------15^--|
A#---------------------------------------------------------------------|
F#---------------------------------------------------------------------|
C#--5-5-5-2-3-2-0-0-0-0-2-2-2-2-3-3-3-3-7-7-7-7-5-5-5-2-3-2-0----------|
G#--5-5-5-2-3-2-0-------------------------------5-5-5-2-3-2-0----------|
C#--5-5-5-2-3-2-0-------------------------------5-5-5-2-3-2-0----------|

I'm not sure about the bridge, but after that, everything's pretty much exactly like the 
guitar.
Suggest correction
Give kudos to tab author, rate the tab!
1 2 3 4 5
comments
print report bad tab
guest
You may want to rate the tab now too:
select rating
Wanna post a correction for this tab? Suggest correction