Oops, an error
Loading. Please wait.

So Help Me God Tab

version 1
version 1

Whole song

Interactive

2,378 views 1 this week
no commentswrite comment
1 2 3 4 5
excellent!
x 2
add to favorites
launch autoscroll
font size
0
reset
how to read this tab
guitar tuner
Tab Pro tools
  • play this tab
  • loop segment
  • change instrument
  • show fretboard
  • metronome
Autoscroll
slow
fast
+/-
esc
set tempo
stop
Difficulty
Tuning
intermediate
C# G# C# F# A# D#
-------------------------------------------------------------------------------
                             So Help Me God - Fireflight
-------------------------------------------------------------------------------
Tabbed by: MG

Tuning: Half Step Down, Drop D { C# G# C# F# A# D# }

Intro:

e|---------------------------------------------------------------------------|
B|---------------------------------------------------------------------------|
G|---------------------------------------------------------------------------|
D|----7-7-7--9--7-7-7--10--10-9-5--5----------3------------------------------|            (x2)
A|----7-7-7------7-7-7------------------5--(x8)---3--(x8)--------------------|
E|----7-7-7------7-7-7------------------5-----------3------------------------|

Verse:

e|---------------------------------------------------------------------------|
B|---------------------------------------------------------------------------|
G|---------------------------------------------------------------------------|
D|----7-7--x--7-7-7--x-7-7-7--x-7-7-7--x--3-3-3--x--3-3-3--x--3-3-3--x--3-3-3|           (x4)
A|----7-7--x--7-7-7--x-7-7-7--x-7-7-7--x--3-3-3--x--3-3-3--x--3-3-3--x--3-3-3|
E|----7-7--x--7-7-7--x-7-7-7--x-7-7-7--x--3-3-3--x--3-3-3--x--3-3-3--x--3-3-3|

PM --------------------------------------------------------------------------x


Chorus:

e|---------------------------------------------------------------------------|
B|---------------------------------------------------------------------------|
G|---------------------------------------------------------------------------|
D|----7-7-7-7--x--7--x--7--x--7-7-7--3-----------10-------------5---------6--|
A|----7-7-7-7--x--7--x--7--x--7-7-7--3--(x16)--10--(x16)---5--(x8)--6--(x8)--|       (x2)
E|----7-7-7-7--x--7--x--7--x--7-7-7--3-----------10------------5----------6--|


Bridge:

e|---------------------------------------------------------------------------------|
B|---------------------------------------------------------------------------------|
G|---------------------------------------------------------------------------------|
D|3---------5----------7---------6---------3---------5----------6---------14-------|
A|3--(x16)--5--(x16)---7--(x16)--6--(x16)--3--(x16)--5--(x16)---6--(x16)--14--(x16)|
E|3---------5----------7---------6---------3---------5----------6---------14-------|

PM --------------------------------------------------------------------------------x

Chorus B:

e|---------------------------------------------------------------------------|
B|---------------------------------------------------------------------------|
G|---------------------------------------------------------------------------|
D|----7-7-7-7--x--x----14-14-14-14---3-----------10-------------5---------6--|
A|----7-7-7-7--x--x----14-14-14-14---3--(x16)--10--(x16)---5--(x8)--6--(x8)--|
E|----7-7-7-7--x--x----14-14-14-14---3-----------10------------5----------6--|


End:

e|---------------------------------------------------------------------------|
B|---------------------------------------------------------------------------|
G|---------------------------------------------------------------------------|
D|----7----------------------------------------------------------------------|
A|----7--(hold)--------------------------------------------------------------|
E|----7----------------------------------------------------------------------|


Order:
Intro
Verse
Chorus
Intro
Verse
Chorus
Bridge
Chorus B
1/2 Chorus (normal)
Chorus
End

**~~ This was tabbed purely by ear. Made for entertainment purposes only. This is 
up to artist's own interpretation. ~~**


Legend:

| /  slide up
| \  slide down
| h  hammer-on
| p  pull-off
| ~  vibrato
| +  harmonic
| x  Mute note
===============================================================================
comments
We did not receive enough feedback on this tab! Please rate:
print report bad tab
1 2 3 4 5
I want to post or [tab]
guest
You may want to rate the tab now too:
select rating
Please do not post tabs as comments. Select "correction" instead!