Oops, an error
Loading. Please wait.

Stand Up Tab

version 3
version 3

Whole song

Interactive

744 views 1 this week
no commentswrite comment
1 2 3 4 5
please rate
add to favorites
launch autoscroll
font size
0
reset
how to read this tab
guitar tuner
Autoscroll
slow
fast
+/-
esc
set tempo
stop
Help us to improve Ultimate-Guitar.com Take our survey!
×
Author
Difficulty
Tuning
novice
C# G# C# F# A# D#
This is a sweet little song by Fireflight...one of my favorite bands ever. It's pretty 
accurate. They just came out with a new album called 'Now', so be lookin' out for new 
tabs for that.
FIREFLIGHT ROCKS!!!

The song is played in Drop C#.

INTRO:
1|-------------------------------------------------------------------------|
2|-------------------------------------------------------------------------|
3|----1010-----9-9------------1010-----9-9-------3--1010-----9-9-------3---|
4|-0-0-x-x-0-0-x-x-0-0-0-0-0-0-x-x-0-0-x-x-0-0-0-x-0-x-x-0-0-x-x-0-0-0-x-0-|
5|-0-0-8-8-0-0-7-7-0-0-0-0-0-0-8-8-0-0-7-7-0-0-0-1-0-8-8-0-0-7-7-0-0-0-1-0-|
6|-0-0-----0-0-----0-0-0-0-0-0-----0-0-----0-0-0---0-----0-0-----0-0-0---0-|
   x x     x x     x x x x   x     x x     x x x   x     x x     x x x   x

1|---------------------|
2|---------------------|
3|1010-----9-9---------|
4|-x-x-0-0-x-x-0-0-0-0-|
5|-8-8-0-0-7-7-0-0-0-0-|
6|-----0-0-----0-0-0-0-|
       x x     x x x x

VERSE 1:
1|-----------------------------------------------------------------------|
2|-----------------------------------------------------------------------|
3|----------------------------------------------------5---5--------------|2X
4|-[------7---8---7---7--]-----2---3---5---3---2--2-2---2--------3-----2-|
5|-[4/5-5---5---5---5---5]-3-3---3---3---3---3---------------1-1---0-0---|
6|-----------2x----------------------------------------------------------|

PRE CHORUS:
1|--------|
2|--------|
3|--------|
4|-8-7-10-|
5|-8-7-10-|
6|-8-7-10-|

CHORUS:
1|-------------------------------------------------------------------|
2|-------------------------------------------------------------------|
3|------1010-----9-9----------1010-----9-9---------------------------|
4|-(0)-0-x-x-0-0-x-x-0-0-0-0-0-x-x-0-0-x-x-------[8-8-8-8]-[3-3-3-3]-|
5|-(0)-0-8-8-0-0-7-7-0-0-0-0-0-8-8-0-0-7-7-------[8-8-8-8]-[3-3-3-3]-|
6|-(0)-0-----0-0-----0-0-0-0-0-----0-0-----0-2-3-[8-8-8-8]-[3-3-3-3]-|
    x  x     x x     x x x   x     x x               4x       2x

1|-----------------|
2|-----------------|
3|-----------------|
4|-----------------|   Repeat. Don't play the 0's in () the second time.
5|-----------------|
6|-0-0-3-0-3-5-7-0-|
   x x

POST CHORUS:
1|-----------------------------------------|
2|-----------------------------------------|
3|--1010-----9-9----------1010-----9-9-----|
4|-0-x-x-0-0-x-x-0-0-0-0-0-x-x-0-0-x-x-0-0-|
5|-0-8-8-0-0-7-7-0-0-0-0-0-8-8-0-0-7-7-0-0-|
6|-0-----0-0-----0-0-0-0-0-----0-0-----0-0-|
   x     x x     x x x   x     x x     x x

For verse 2 the bass plays the first half, then guitar comes in at (1:17)
VERSE 2:
1|----------|----------------------------------------------|
2|-[6-6-6-6]|----------------------------------------------|
3|-----PM---|----------------------------5---5-------------|
4|----------|-----2---3---5---3---2--2-2---2-------3-----2-|
5|----------|-3-3---3---3---3---3--------------1-1---0-0---|
6|----------|----------------------------------------------|
      4x

Play pre chorus again but hit the 8's and 7's twice before hitting the 10's.
Play Chorus again, but not post chorus.

POST CHORUS 2:

1|---------------------------------------|
2|---------------------------------------|
3|10--1010-----9-9----------1010-----9-9-|
4|-x-0-x-x-0-0-x-x-0-0-0-7-0-x-x-0-0-x-x-|
5|-8-0-8-8-0-0-7-7-0-0-0-7-0-8-8-0-0-7-7-|
6|---0-----0-0-----0-0-0-7-0-----0-0-----|
     x     x x     x x x   x     x x

BRIDGE:

1|---------------------------------------|
2|----------------------4x---------4x----|
3|---------------------------------------|
4|-[----7h8-----2h3]-[2-2-2-2]-[7-7-7-7]-|
5|-[--5-------0----]-[2-2-2-2]-[7-7-7-7]-|
6|-[5-------0------]-[2-2-2-2]-[7-7-7-7]-|
         2x           x x x x   x x x x

The solo is pretty wierd and it's only like...3 notes long, so I'll just put down what I 
am pretty sure Justin plays.  It sounds right anyway.

SOLO:

1|----------|
2|-8b-5b-8b-|
3|----------|
4|----------|
5|----------|
6|----------|

Play chorus again.
Outro is the same as the intro.

Have fun, kids...
Suggest correction
What's this?
You can suggest a correction to this tab. Community and Mods will review your correction and vote to approve or reject it.
comments
We did not receive enough feedback on this tab! Please rate:
print report bad tab
1 2 3 4 5
guest
You may want to rate the tab now too:
select rating
Please do not post tabs as comments. Select "correction" instead!