Oops, an error
Loading. Please wait.

Stay Close Tab

version 1
version 1

Whole song

Interactive

1,295 views 3 this week
1 commentread comment
1 2 3 4 5
please rate
add to favorites
launch autoscroll
font size
0
reset
how to read this tab
guitar tuner
Autoscroll
slow
fast
+/-
esc
set tempo
stop
Help us to improve Ultimate-Guitar.com Take our survey!
×
Author
Difficulty
Tuning
novice
C# G# C# F# A# D#
Tuning: Drop C#

Please note that in the fast verse riff the number of times picked is not shown. its not 
hard to pick up but it is picked alot more than 4 times.

Fast Verse Riff
|----------------------------------|
|----------------------------------|
|----------------------------------|
|----------------------------------|
|--4-4-4-4-------------------------|
|----------7-7-7-7-9-9-9-9-4-4-4-4-|

Pre-Chorus
|---------------------------------------------------------|
|--(this is similar to the verse but not exactly)---------|
|---------------------------------------------------------|
|---------------------------------------------------------|
|--4-4-4-4------------------------------------------------|
|----------7-7-7-7-9-9-9-9-4-4-4-4-7-7-7-7-9-9-9-9-4-4-4-4|

Chorus
|-----------------------------|
|-(elevens)-------------------|
|----------9-9-9--------------|
|-11-11-11-9-9-9-7-7-7-4-4-4--|
|-11-11-11-7-7-7-7-7-7-4-4-4--|
|-11-11-11-------7-7-7-4-4-4--|

Post Chorus Riff (not 100% sure this is right but it is what it sounds like to me.)

Parentheses is at the End of the post riff

|---------------------------------------------------------|
|---------------------------------------------------------|
|---------------------------------------------------------|
|---------------------------------------------------------|
|---------------------------------------------------------|
|-0-10-9-0-10-0-10-12--0-10-9-0-10-0-10-12--(12-12-12-12)-|

I don't KNOW the bridge part yet... I have a idea what it is but i don't know for sure. 
So i am not going to post it.

I hope this was helpful!
Suggest correction
What's this?
You can suggest a correction to this tab. Community and Mods will review your correction and vote to approve or reject it.
comments
We did not receive enough feedback on this tab! Please rate:
print report bad tab
1 2 3 4 5
1 comment total.
0 reply
oogah33 203 wrote on January 28 2012, 07:50 pm

This tab is pretty good. Only correction I'd make is in the chorus. I might be wrong, but I THINK it goes like this:

|-----------------------------|
|-----------------------------|
|----------9-9-9--------------|
|-11-11-11-9-9-9-9-9-9-4-4-4--|
|-11-11-11-7-7-7-9-9-9-4-4-4--|
|-11-11-11-------9-9-9-4-4-4--|

Other than that, great!

guest
You may want to rate the tab now too:
select rating
Please do not post tabs as comments. Select "correction" instead!