Oops, an error
Loading. Please wait.

Stay Close Tab

version 2
version 2

Whole song

Interactive

3,327 views 3 this week
1 commentread comment
1 2 3 4 5
excellent!
x 2
add to favorites
launch autoscroll
font size
0
reset
how to read this tab
guitar tuner
Tab Pro tools
  • play this tab
  • loop segment
  • change instrument
  • show fretboard
  • metronome
Autoscroll
slow
fast
+/-
esc
set tempo
stop
Contributor
Difficulty
Tuning
novice
C G C F A D
Artist: Fireflight
Song: Stay Close

Tabbed by: Rawk4Life

Tuning: Drop C

Tab key:
*=Palm Mute
(16x)= how many times a note is played
h=hammer-on

VERSE (The first part of the verse the guitars are silent, then they come on with this)
"I want to know you..."
D |-------------------------------------|
A |-------------------------------------|
F |-------------------------------------|
C |-------------------------------------|
G |-5-(16x)-1-(16x)-3-(16x)-0-(16x)-----|
C |-------------------------------------|
    *       *       *       *
PRE CHORUS
"Every turn leads me to a new dead end..."
D |---------------------------------------------------|
A |---------------------------------------------------|
F |---------------------------------------------------|
C |---------------------------------------------------|
G |-5-(8x)-3-(8x)-0-(8x)-5-(8x)-1-(8x)-3-(8x)-0-(16x)-|
C |---------------------------------------------------|
    *      *      *      *      *      *      *

CHORUS
"Come close..."
D |-----------------------------------|
A |-----------------------------------|
F |-7-------10------------------------|
C |-7-(16x)-10-(16x)-10-------5-------| 2x
G |-5-------8--------10-(16x)-5-(16x)-|
C |------------------10-------5-------|

POST-CHORUS

D |-----------------------------------------|
A |-----------------------------------------|
F |-----------------------------------------|
C |-----------------------------------------|
G |-----------------------------------------|
C |-0-0-10-0-12-0-10h12-0-13-0-0-12-0-10h12-|

D |------------------------------------------|
A |------------------------------------------|
F |------------------------------------------|
C |------------------------------------------|
G |------------------------------------------|
C |-0-0-10-0-12-0-10h12-0-13-0-0-13-13-13-13-|

VERSE 2
"Precious denial..."
D |-------------------------------------|
A |-------------------------------------|
F |-------------------------------------|
C |-------------------------------------| 2x
G |-5-(16x)-1-(16x)-3-(16x)-0-(16x)-----|
C |-------------------------------------|
    *       *       *       *

PRE CHORUS
"Every turn leads me to a new dead end..."
D |---------------------------------------------------|
A |---------------------------------------------------|
F |---------------------------------------------------|
C |---------------------------------------------------|
G |-5-(8x)-3-(8x)-0-(8x)-5-(8x)-1-(8x)-3-(8x)-0-(16x)-|
C |---------------------------------------------------|
    *      *      *      *      *      *      *

CHORUS
"Come close..."
D |-----------------------------------|
A |-----------------------------------|
F |-7-------10------------------------|
C |-7-(16x)-10-(16x)-10-------5-------| 2x
G |-5-------8--------10-(16x)-5-(16x)-|
C |------------------10-------5-------|


POST-CHORUS

D |-----------------------------------------|
A |-----------------------------------------|
F |-----------------------------------------|
C |-----------------------------------------|
G |-----------------------------------------|
C |-0-0-10-0-12-0-10h12-0-13-0-0-12-0-10h12-|

D |------------------------------------------|
A |------------------------------------------|
F |------------------------------------------|
C |------------------------------------------|
G |------------------------------------------|
C |-0-0-10-0-12-0-10h12-0-13-0-0-13-13-13-13-|

BRIDGE (Guitars are silent, then they come in with this) There are two guitars here, and 
they both come in at the same time.
"Stay by my side..."

(Guitar 1)
D |----------------------------------------------------------------|
A |----------------------------------------------------------------|
F |-7------7---------7-7-7-7-7-x-7-x-7--10-10-10-10-10-x--10-x--10-|
C |-7-(5x)-7-(5x)----7-7-7-7-7-x-7-x-7--10-10-10-10-10-x--10-x--10-|
G |-5------5---------5-5-5-5-5-x-5-x-5--8--8--8--8--8--x--8--x--8--|
C |----------------------------------------------------------------|

D |---------------------------------------------|
A |---------------------------------------------|
F |---------------------------------------------|
C |-10-10-10-10-10-x-10-x-10--5-5-5-5-5-x-5-x-5-|
G |-10-10-10-10-10-x-10-x-10--5-5-5-5-5-x-5-x-5-|
C |-10-10-10-10-10-x-10-x-10--5-5-5-5-5-x-5-x-5-|

(Guitar 2)
D |--------------------------------------|
A |-------------------10-----------------|
F |-7-7-10-7-9h10-7-7----7-9h10-7-10-9-7-|
C |--------------------------------------| (6x???)
G |--------------------------------------|
C |--------------------------------------|

CHORUS
"Come close..."
D |-----------------------------------|
A |-----------------------------------|
F |-7-------10------------------------|
C |-7-(16x)-10-(16x)-10-------5-------| 4x
G |-5-------8--------10-(16x)-5-(16x)-|
C |------------------10-------5-------|

OUTRO (Play this riff twice)
D |-----------------------------------------|
A |-----------------------------------------|
F |-----------------------------------------|
C |-----------------------------------------|
G |-----------------------------------------|
C |-0-0-10-0-12-0-10h12-0-13-0-0-12-0-10h12-|

D |------------------------------------------|
A |------------------------------------------|
F |------------------------------------------|
C |------------------------------------------|
G |------------------------------------------|
C |-0-0-10-0-12-0-10h12-0-13-0-0-13-13-13-13-|

Finished!
comments
We did not receive enough feedback on this tab! Please rate:
print report bad tab
1 2 3 4 5
1 comment total.
0 reply
TrevorPister25 wrote on November 21 2012, 12:21 pm

Nice tab. great song!

I want to post or [tab]
guest
You may want to rate the tab now too:
select rating
Please do not post tabs as comments. Select "correction" instead!