Oops, an error
Loading. Please wait.

The Hunger Tab

version 1
version 1

Whole song

Interactive

4,677 views 3 this week
6 commentsread comments
1 2 3 4 5
x 3
add to favorites
launch autoscroll
font size
0
reset
how to read this tab
guitar tuner
Autoscroll
slow
fast
+/-
esc
set tempo
stop
Help us to improve Ultimate-Guitar.com Take our survey!
×
Author
Difficulty
Tuning
novice
D A D G B E
----------------------------------------------------------------------------
                             The hunger - Fireflight
----------------------------------------------------------------------------
Tabbed by: Gio Michael Bautista
Email: giobautista02@yahoo.com

Tuning: Drop D

Intro:
Repeat this 2 times
e|-------------------------------------------------------------------------|
B|-------------------------------------------------------------------------|
G|-------------------------------------------------------------------------|
D|-2-2-0-2--0-0-0--2-2-0-2-5-----------------------------------------------|
A|-2-2-0-2--0-0-0--2-2-0-2-5-----------------------------------------------|
E|-2-2-0-2--0-0-0--2-2-0-2-5-----------------------------------------------|
Verse:
Repeat this 4 times
e|-------------------------------------------------------------------------|
B|-------------------------------------------------------------------------|
G|-------------------------------------------------------------------------|
D|-2-2-2-2-2/5-2-2---2-2-2-0-0-0-------------------------------------------|
A|-2-2-2-2-2/5-2-2---2-2-2-0-0-0-------------------------------------------|
E|-2-2-2-2-2/5-2-2---2-2-2-0-0-0-------------------------------------------|
Refrain:
Repeat this 3 times
e|-------------------------------------------------------------------------|
B|-------------------------------------------------------------------------|
G|-------------------------------------------------------------------------|
D|-2-0-2--0-0-0--2-0-2-5---------------------------------------------------|
A|-2-0-2--0-0-0--2-0-2-5---------------------------------------------------|
E|-2-0-2--0-0-0--2-0-2-5---------------------------------------------------|
     .    . . .    .
Then before the chorus:
Repeat this several times just listen to the song
e|-------------------------------------------------------------------------|
B|-------------------------------------------------------------------------|
G|-------------------------------------------------------------------------|
D|-5-----------------------------------------------------------------------|
A|-5-----------------------------------------------------------------------|
E|-5-----------------------------------------------------------------------|
Chorus:
I'm not sure if this is correct just tying =D
Listen to the song for the right timing
e|-------------------------------------------------------------------------|
B|-------------------------------------------------------------------------|
G|-9-9---------------------------------------------------------------------|
D|-9-9-7-7-7-7-5-5-5-5-5-5-5-----------------------------------------------|
A|-7-7-7-7-7-7-5-5-5-5-5-5-5-----------------------------------------------|
E|-----7-7-7-7-5-5-5-5-5-5-5-----------------------------------------------|

Just listen to the song for the right timing of the chord changing in the 
chorus part.The chords in the chorus part is not accurate so pls comment 
and correct it.. ty. Ü
Suggest correction
Give kudos to tab author, rate the tab!
1 2 3 4 5
comments
print report bad tab
6 comments total. Showing first comments.
0 reply
giobautista02 38 Nov 07, 2008 03:00 AM

change the chorus part to this:

e|------------------------------------------------------------------|
B|------------------------------------------------------------------|
G|------------------------------------------------------------------|
D|-2-2-7-7-7-7-5-5-5-5-5-5-5----------------------------------------|
A|-2-2-7-7-7-7-5-5-5-5-5-5-5----------------------------------------|
E|-2-2-7-7-7-7-7-5-5-5-5-5-5-5--------------------------------------|

thats it.. enjoy my tab

0 reply
giobautista02 38 Nov 07, 2008 06:05 PM

i forgot to change the big E to big D.. but it's drop d in tuning

0 reply
ktina_guitar 10 Nov 20, 2008 08:02 PM

i'm positive this is supposed to be drop c
i don't know if either of the versions of the chorus you have are right too.

guest
You may want to rate the tab now too:
select rating
Wanna post a correction for this tab? Suggest correction