Oops, an error
Loading. Please wait.

The Hunger Tab

version 3
version 3

Whole song

Interactive

493 views 1 this week
no commentswrite comment
1 2 3 4 5
please rate
add to favorites
launch autoscroll
font size
0
reset
how to read this tab
guitar tuner
Autoscroll
slow
fast
+/-
esc
set tempo
stop
Help us to improve Ultimate-Guitar.com Take our survey!
×
Author
Difficulty
Tuning
Trison 141
novice
D# G# C# F# A# D#
Artist -Fireflight
Song -The Hunger
Album -Unbreakable

Tunning Drop Db
(Db Ab Db Gb Bb Eb)

INTRO (0:00)
------------------------------------------------------|
------------------------------------------------------|
------------------------------------------------------|
-1-1-0-1-0-1-0-1-1-1-1-444--1-1-0-1-0-1-0-1-1-1-1-666-|
-1-1-0-1-0-1-0-1-1-1-1-444--1-1-0-1-0-1-0-1-1-1-1-666-|
-1-1-0-1-0-1-0-1-1-1-1-444--1-1-0-1-0-1-0-1-1-1-1-666-|

VERSE (0:07)
------------------------------------------------------------------|
------------------------------------------------------------------|
------------------------------------------------------------------|
-1-1-1-1-h4-1-1-1-1-1-0-0-0-0-0--1-1-1-1-h6-1-1-1-1-1-0-0-0-0-0---| X2
-1-1-1-1-h4-1-1-1-1-1-0-0-0-0-0--1-1-1-1-h6-1-1-1-1-1-0-0-0-0-0---|
-1-1-1-1-h4-1-1-1-1-1-0-0-0-0-0--1-1-1-1-h6-1-1-1-1-1-0-0-0-0-0---|

PRE CHORUS (0:22)
---------------------------------|
---------------------------------|
---------------------------------|
-8-88-8-88-8-88-8-(11)-11-11-----|  X2
-8-88-8-88-8-88-8-(11)-11-11-----|
-6-66-6-66-6-66-6--9---9--9------|
   PM   PM   PM

--------------------------------------------------|
--------------------------------------------------|
--------------------------------------------------|
-8-88-8-88-8-88-8---13--13-13-6-6-6-6-6-6-6-6-6-6-|
-8-88-8-88-8-88-8---13--13-13-6-6-6-6-6-6-6-6-6-6-|
-6-66-6-66-6-66-6--(11)-11-11-4-4-4-4-4-4-4-4-4-4-|
   PM   PM   PM
CHORUS (0:36)
------------------------------------|
------------------------------------|
------------------------------------|
-7-7-7-7-7/6-6-6-6-6/9-9-9-9-9------| X2
-7-7-7-7-7/6-6-6-6-6/9-9-9-9-9------|
-7-7-7-7-7/6-6-6-6-6/9-9-9-9-9------|

------------------------------------------------|
------------------------------------------------|
------------------------------------------------|
-7-7-7-7-7-7-7-7-7-7-7-7-7/2-2-2-2-2-2-4-4-4-4~-|
-7-7-7-7-7-7-7-7-7-7-7-7-7/2-2-2-2-2-2-4-4-4-4~-|
-7-7-7-7-7-7-7-7-7-7-7-7-7/2-2-2-2-2-2-4-4-4-4~-|

INTRO (0:57)
------------------------------------------------------|
------------------------------------------------------|
------------------------------------------------------|
-1-1-0-1-0-1-0-1-1-1-1-444--1-1-0-1-0-1-0-1-1-1-1-666-|
-1-1-0-1-0-1-0-1-1-1-1-444--1-1-0-1-0-1-0-1-1-1-1-666-|
-1-1-0-1-0-1-0-1-1-1-1-444--1-1-0-1-0-1-0-1-1-1-1-666-|

VERSE (1:03)
----------------------------------------------------------------|
----------------------------------------------------------------|
----------------------------------------------------------------|
-1-1-1-1-h4-1-1-1-1-1-0-0-0-0-0--1-1-1-1-h6-1-1-1-1-1-0-0-0-0-0-|
-1-1-1-1-h4-1-1-1-1-1-0-0-0-0-0--1-1-1-1-h6-1-1-1-1-1-0-0-0-0-0-| x2
-1-1-1-1-h4-1-1-1-1-1-0-0-0-0-0--1-1-1-1-h6-1-1-1-1-1-0-0-0-0-0-|

PRE CHORUS (1:17)
---------------------------------|
---------------------------------|
---------------------------------|
-8-88-8-88-8-88-8-(11)-11-11-----|  X2
-8-88-8-88-8-88-8-(11)-11-11-----|
-6-66-6-66-6-66-6--9---9--9------|
   PM   PM   PM

--------------------------------------------------|
--------------------------------------------------|
--------------------------------------------------|
-8-88-8-88-8-88-8---13--13-13-6-6-6-6-6-6-6-6-6-6-|
-8-88-8-88-8-88-8---13--13-13-6-6-6-6-6-6-6-6-6-6-|
-6-66-6-66-6-66-6--(11)-11-11-4-4-4-4-4-4-4-4-4-4-|
   PM   PM   PM

CHORUS (1:33)
------------------------------------|
------------------------------------|
------------------------------------|
-7-7-7-7-7/6-6-6-6-6/9-9-9-9-9------| X2
-7-7-7-7-7/6-6-6-6-6/9-9-9-9-9------|
-7-7-7-7-7/6-6-6-6-6/9-9-9-9-9------|

-----------------------------------------------|
-----------------------------------------------|
-----------------------------------------------|
7-7-7-7-7-7-7-7-7-7-7-7-7/2-2-2-2-2-2/4-4-4-4~-|
7-7-7-7-7-7-7-7-7-7-7-7-7/2-2-2-2-2-2/4-4-4-4~-|
7-7-7-7-7-7-7-7-7-7-7-7-7/2-2-2-2-2-2/4-4-4-4~-|

INTRO (1:54)
------------------------------------------------------|
------------------------------------------------------|
------------------------------------------------------|
-1-1-0-1-0-1-0-1-1-1-1-444--1-1-0-1-0-1-0-1-1-1-1-666-| x2
-1-1-0-1-0-1-0-1-1-1-1-444--1-1-0-1-0-1-0-1-1-1-1-666-|
-1-1-0-1-0-1-0-1-1-1-1-444--1-1-0-1-0-1-0-1-1-1-1-666-|

BREAK DOWN (2:01)
-------0--------------0-----------|
----------------2--------------0--|
----2---------2-----2--------2----|
------------0--------------0------|
-0--------2--------------2--------|
----------------------------------|

CHORUS (2:15)
---------------------------------|
---------------------------------|
---------------------------------|
-7-7-7-7-7/6-6-6-6-6/9-9-9-9-9---| X5
-7-7-7-7-7/6-6-6-6-6/9-9-9-9-9---|
-7-7-7-7-7/6-6-6-6-6/9-9-9-9-9---|

(2:46)
------------------------------------------------|
------------------------------------------------|
------------------------------------------------|
-7-7-7-7-7-7-7-7-7-7-7-7-7/2-2-2-2-2-2-4-4-4-4~-|
-7-7-7-7-7-7-7-7-7-7-7-7-7/2-2-2-2-2-2-4-4-4-4~-|
-7-7-7-7-7-7-7-7-7-7-7-7-7/2-2-2-2-2-2-4-4-4-4~-|

INTRO (2:55)
------------------------------------------------------|
------------------------------------------------------|
------------------------------------------------------|
-1-1-0-1-0-1-0-1-1-1-1-444--1-1-0-1-0-1-0-1-1-1-1-666-| x2
-1-1-0-1-0-1-0-1-1-1-1-444--1-1-0-1-0-1-0-1-1-1-1-666-|
-1-1-0-1-0-1-0-1-1-1-1-444--1-1-0-1-0-1-0-1-1-1-1-666-|

(2:57)
------------------------------------------------------|
------------------------------------------------------|
------------------------------------------------------|
-1-1-0-1-0-1-0-1-1-1-1-444--1-1-0-1-0-1-0-1-1-1-1-666-| x2
-1-1-0-1-0-1-0-1-1-1-1-444--1-1-0-1-0-1-0-1-1-1-1-666-|
-1-1-0-1-0-1-0-1-1-1-1-444--1-1-0-1-0-1-0-1-1-1-1-666-|

--------------------------------------------------|
--------------------------------------------------|
--------------------------------------------------|
-1-1-0-1-0-1-0-1-1-1-1-444--1-1-0-1-0-1-0-1-1-0-1-|
-1-1-0-1-0-1-0-1-1-1-1-444--1-1-0-1-0-1-0-1-1-0-1-|
-1-1-0-1-0-1-0-1-1-1-1-444--1-1-0-1-0-1-0-1-1-0-1-|
Suggest correction new What's this?
You can suggest a correction to this tab. Community and Mods will review your correction and vote to approve or reject it.
comments
We did not receive enough feedback on this tab! Please rate:
print report bad tab
1 2 3 4 5
guest
You may want to rate the tab now too:
select rating
Please do not post tabs as comments. Select "correction" instead!