Oops, an error
Loading. Please wait.

The Love We Had Before Tab

version 1
version 1

Whole song

Interactive

3,650 views 1 this week
4 commentsread comments
1 2 3 4 5
1 last vote to show rating
add to favorites
launch autoscroll
font size
0
reset
how to read this tab
guitar tuner
Autoscroll
slow
fast
+/-
esc
set tempo
stop
Help us to improve Ultimate-Guitar.com Take our survey!
×
Author
Difficulty
Tuning
novice
C G C F A D
-------------------------------------------------------------------------------
               The Love We Had Before - Fireflight
-------------------------------------------------------------------------------
Tabbed by: mokmok111
Email: munkntunk@cox.net

Tuning:Drop c

Intro (x2):

d|--------------------------------------------------------------------------|
a|--------------------------------------------------------------------------|
F|--------------------------------------------------------------------------|
C|-2-x-x--2s4--4-4-4-4---4-x-x--7s6--6-6-6-6---2-x-x--2s4--4-4-4-4----------|
G|-2-x-x-----------------4-x-x-----------------2-x-x------------------------|
C|-2-x-x-----------------4-x-x-----------------2-x-x------------------------|

d|-------------------|
a|-------------------|
F|-------------------|
C|-2-x-x-2-x-2-x-2-2-|
G|-2-x-x-2-x-2-x-2-2-|
C|-2-x-x-2-x-2-x-2-2-|

Verse:
The notes in parenthesis is the little riff in the verse that is only played after the 
time around (The notes are not very accurate).

d|----------------------------------------------------------------------|
a|----------------------------------------------------------------------|
F|----------------------------------------------------------------------|
C|-2-2-2-2-2-2-2-2-2-2-2-2-2-2-2--4-4-4-4-4-6----(-7-7-6-6-4-4-)--------|
G|-2-2-2-2-2-2-2-2-2-2-2-2-2-2-2--4-4-4-4-4-6---------------------------|
C|-2-2-2-2-2-2-2-2-2-2-2-2-2-2-2--4-4-4-4-4-6---------------------------|

Chorus (x2):
Don't do the notes In parenthesis until he second time around.

d|------------------------------------------------------------------------------------|
a|------------------------------------------------------------------------------------|
F|------------------------------------------------------------------------------------|
C|-2-2-2-2-7-7-7-7-6-6-6-6-4-4-4-4-2-2-2-2-4-4-4-4-(-2-2-2-2-4-4-4-4-2-2-2-2-4-4-4-4)-|
G|-2-2-2-2-7-7-7-7-6-6-6-6-4-4-4-4-2-2-2-2-4-4-4-4-(-2-2-2-2-4-4-4-4-2-2-2-2-4-4-4-4)-|
C|-2-2-2-2-7-7-7-7-6-6-6-6-4-4-4-4-2-2-2-2-4-4-4-4-(-2-2-2-2-4-4-4-4-2-2-2-2-4-4-4-4)-|

(Do the intro one time after that chorus after verse 1 after the chorus that's after 
2 go to the bridge.)

Bridge:

d|----------------------------------------------|
a|----------------------------------------------|
F|----------------------------------------------|
C|-2~-4~-6~-7~-6~-------------------------------|
G|-2~-4~-6~-7~-6~-----------------------|   A|--|
C|-2~-4~-6~-7~-6~-------------------------------|x2

This is the part at "Where is the love" or something like that.

d|---------------------------------|
a|---------------------------------|
F|---------------------------------|
C|-7-7-7-7-6-6-6-6-4-4-4-4-2-2-2-2-|
G|-7-7-7-7-6-6-6-6-4-4-4-4-2-2-2-2-|
C|-7-7-7-7-6-6-6-6-4-4-4-4-2-2-2-2-|x3

Order of the song:
Intro x2
Verse x2
Chorus x2
Intro x1
Verse x2
Chorus x2
Bridge x1
Chorus x4
Intro x1

I tried as hard as I could to make this tab understandable to all. I know something is 
I am open to comments and corrections so please do.

                        Thanks God bless you,
                               Jamey.
Suggest correction
Give kudos to tab author, rate the tab!
1 2 3 4 5
comments
print report bad tab
4 comments total. Showing first comments.
0 reply
=(Cody=) 148 Oct 26, 2009 01:01 AM

no.

first, the song is played in drop Db (C#).

intro is:

d#|--------------------------------------------------------------------------|
a#|--------------------------------------------------------------------------|
F#|-------7/1010----------15/14-----------10/12----------7---7---7------------|
C#|-0-00--x-x-x-x8--5-55--x--x--x8--8-88--x-x--x8--0-00-x---x---x------------|
G#|-0-00--5/8-8-----5-55--13/12-----8-88--8/10-----0-00-5-0-5-0-5--000-------|
C#|-0-00------------5-55------------8-88-----------0-00---0---0----000-------|
. . . . . . . . . . . . .

take that intro and tuning and start over entirely, cause you have basically nothing correct. It wasn't a bad effort, but it's simply not right.

0 reply
mokmok111 74 Oct 26, 2009 01:43 PM

Thanks, I also have one of my friends coming to check this out. Thanks for the correction.

0 reply
musicnotes1999 209 Dec 23, 2014 12:08 AM

Lack of accuracy. Sounds a bit off. Close, but not close enough. I would definitely have to agree with the person who commented on this tab. It needs to be in drop c# not drop c.

guest
You may want to rate the tab now too:
select rating
Wanna post a correction for this tab? Suggest correction