Oops, an error
Loading. Please wait.

Unbreakable Tab

version 2
version 2
14,565 views 3 this week
7 commentsread comments
1 2 3 4 5
x 8
add to favorites
launch autoscroll
font size
0
reset
how to read this tab
guitar tuner
Autoscroll
slow
fast
+/-
esc
set tempo
stop
Help us to improve Ultimate-Guitar.com Take our survey!
×
Author
Fireflight
Unbreakable
Tuning: DbAbDbGbBbEb
Tabber Johan Hummelmose Enevoldsen


Intro
0:00
Eb:----------------------------10-------------|
Bb:12---10---8s10---10-12---12----------------|
Gb:---9----9------9-------9-------9--12-11----|
Db:----------------------------------------12-| x6
Ab:-------------------------------------------|
Eb:-------------------------------------------|

Vers
0:16
Eb:----------------------------------|
Bb:----------------------------------|
Gb:----------------------------------|
Db:2---2---2-0-2---------------------|
Ab:2---2---2-0-2---------------------|
Eb:2---2---2-0-2---------------------|

Chorus
0:38
Eb:---------------------------------------------|
Bb:---------------------------------------------|
Gb:5----7----12---11----------------------------|
Db:5x8--7x4--12x2-11x2-22xx22-xx-x22xx22-xx-x---| x2
Ab:3----5----10---9----22xx22-xx-x22xx22-xx-x---|
Eb:--------------------22xx22-xx-x22xx22-xx-x---|

Post Chorus
0:59
Eb:----------------------------------|
Bb:----------------------------------|
Gb:9---7----7------------------------|
Db:9x8-7x4-07-0----------------------|
Ab:7---5---05-0----------------------|
Eb:--------0--0----------------------|

Vers
1:04
Eb:-------------------------------------------|
Bb:-------------------------------------------|
Gb:-----------------------------------------7-|
Db:2---2---2xxx2x2x2-0xxx0x0x0-22xx22-2-0---7-|
Ab:2---2---2xxx2x2x2-0xxx0x0x0-22xx22-2-0x4-5-|
Eb:2---2---2xxx2x2x2-0xxx0x0x0-22xx22-2-0-----|

Chorus
1:26
Eb:-------------------------------------------|
Bb:-------------------------------------------|
Gb:5----7----12---11--------------------------|
Db:5x8--7x4--12x2-11x2-22xx22-xx-x22xx22-xx-x-| x2
Ab:3----5----10---9----22xx22-xx-x22xx22-xx-x-|
Eb:--------------------22xx22-xx-x22xx22-xx-x-|

Post-chorus
1:47
Eb:----------------------------------|
Bb:----------------------------------|
Gb:9---7----7------------------------|
Db:9x8-7x4-07-0----------------------|
Ab:7---5---05-0----------------------|
Eb:--------0--0----------------------|

Bride
1:53
Eb:----------------------------------|
Bb:----------------------------------|
Gb:----------------------------------|
Db:2---2-----------------------------|
Ab:2---2-----------------------------|
Eb:2---2-----------------------------|

Bridge
2:03
Eb:----------------------------------------|
Bb:----------------------------------------|
Gb:----------------------------------------|
Db:2-2-10-10-9-7---2-2-10-10-9-7-9-7-5-0-2-|
Ab:2-2-10-10-9-7x2-2-2-10-10-9-7-9-7-5-0-2-|
Eb:2-2-10-10-9-7---2-2-10-10-9-7-9-7-5-0-2-|

Bridge
2:08
Eb:----------------------------------|
Bb:----------------------------------|
Gb:----------------------------------|
Db:2-2-10-10-9-7---2-22-2------------|
Ab:2-2-10-10-9-7x2-2-22-2------------|
Eb:2-2-10-10-9-7---2-22-2------------|

Chorus
2:13
Eb:-------------------------------------------|
Bb:-------------------------------------------|
Gb:5----7----12---11--------------------------|
Db:5x8--7x4--12x2-11x2-22xx22-xx-x22xx22-xx-x-| x4
Ab:3----5----10---9----22xx22-xx-x22xx22-xx-x-|
Eb:--------------------22xx22-xx-x22xx22-xx-x-|

Post-Chorus
2:56
Eb:----------------------------------|
Bb:----------------------------------|
Gb:9---7----7------------------------|
Db:9x8-7x4-07-0----------------------|
Ab:7---5---05-0----------------------|
Eb:--------0--0----------------------|

Outro
3:02
Eb:----------------------------------|
Bb:----------------------------------|
Gb:----------------------------------|
Db:22xx22-xx-x22xx22-xx-x------------|
Ab:22xx22-xx-x22xx22-xx-x------------|
Eb:22xx22-xx-x22xx22-xx-x------------|

Outro
3:07
Eb:----------------------------------|
Bb:----------------------------------|
Gb:----------------------------------|
Db:22xx22-5-2-0-2--------------------|
Ab:22xx22-5-2-0-2--------------------|
Eb:22xx22-5-2-0-2--------------------|


if you have any corrections or comments, please write to Johan-hummel@hotmail.com
Suggest correction
comments
print report bad tab
7 comments total. Showing first comments.
+2 reply
lugoffguardgirl 10 Apr 14, 2008 05:28 PM

nice tab!

0 reply
JohanH 134 Apr 29, 2008 04:30 PM

Thanks:P just remember, instead of Eb its Db:P

0 reply
sac 30 May 14, 2008 12:26 PM

u left a ton out of this tab. the bridge, the second guitar, the verse... what you have sounds right. You mixed guitar one and two during the chorus though.

guest
You may want to rate the tab now too:
select rating
Wanna post a correction for this tab? Suggest correction