Oops, an error
Loading. Please wait.

Wrapped In Your Arms tab

version 1
version 1

Whole song

Interactive

9,979 views 3 this week
2 commentsread comments
1 2 3 4 5
x 3
add to favorites
×
Save as Personal and add changes to this tab that will be seen only by you. Learn more ›
×
You can save this tab as Personal to edit and correct it or add notes. All changes will be seen only by you. Learn more »
launch autoscroll
font size
0
reset
how to read this tab
guitar tuner
edit
Autoscroll
slow
fast
+/-
esc
set tempo
stop
Band: Fireflight
Song: Wrapped In Your Arms
Tabbed By: Matthew Florio; myspace.com/mattflorio2
email: Shempashland@yahoo.com

Hey I saw the other tabs online for this song and they didn't seem to sound correct. I
back and listened to the song and pretty much figured it out. It is a fairly easy song
I hope you enjoy it. It is a beautiful song! If you have any questions or comments 
contact me!

Tuning: Half Step Down (EbAbDbGbBbeb)

Intro/Verse
    Em          Cadd9
Eb--------------------------------------|
Bb--77778888----33333333----------------|
Gb--00000000----00000000----------------|
Db--00000000----00000000----------------|
Ab--77777777----33333333----------------|
Eb--00000000----------------------------|

Prechorus
    D
Eb--0------------------------------------|
Bb--5------------------------------------|
Gb--0------------------------------------|
Db--4------------------------------------|
Ab--5------------------------------------|
Eb---------------------------------------|

Chorus
*I added a few ways to play this song:
First way:
     G   D  Em  Cadd9
Eb-------2---0---0--------------------|
Bb---3---3---3---3--------------------|
Gb---0---2---0---0--------------------|
Db---0---0---x---2--------------------|
Ab---x-------2---3--------------------|
Eb---3-------0------------------------|

Second way (I play it this way live):
Eb---0---0---0---0-------------|
Bb---3--10---8---8-------------|
Gb---0---0---0---0-------------|
Db---0---0---0---0-------------|
Ab---x---x---7---x-------------|
Eb---3--10---0---8-------------|

Bridge
 Asus Cadd9 Em  D
Eb--3---0---0---2--------------|
Bb--0---3---3---3--------------|
Gb--x---0---0---2--------------|
Db--2---2---2---0--------------|
Ab--0---3---2---x--------------|
Eb----------0------------------|

This part is the quiet Chorus that comes in after the bridge
When I play it live I like playing it like this:
      G    D  Em  Cadd9
Eb----0----0---0---0--------------------|
Bb----8---10---8---8--------------------|
Gb----0----0---0---0--------------------|
Db----0----0---0---0--------------------|
Ab---10----x---7---x--------------------|
Eb--(10)--10---0---8--------------------|

Outro
Eb--00000---0~---------------------|
Bb--77788---8~---------------------|
Gb--00000---0~---------------------|
Db--00000---0~---------------------|
Ab--77777---x~---------------------|
Eb--00000---8~---------------------|
 "Im Home"

            
            
Suggest correction
Creating personal tab
Creating personal tab
You can edit any tab online and save it as your Personal.

You can edit, replace or remove any tab part or add personal notes – all changes will be seen only by you.

Personal tabs can be accessed anytime from any device, even offline.
Learn more »
Give kudos to tab author, rate the tab!
1 2 3 4 5
comments
print report bad tab
2 comments total.
0 reply
=(Cody=) 148 May 23, 2010 02:59 PM

on the prechorus, that 4 on the Db string (the F) doesn't really fit there as well as if it was just an open Db note.

and you made the chords far more complicated than they need to be.
all these chords:
G D Em Cadd9
Eb-------2---0---0--------------------|
Bb---3---3---3---3--------------------|
Gb---0---2---0---0--------------------|
Db---0---0---x---2--------------------|
Ab---x-------2---3--------------------|
Eb---3-------0------------------------|

the band plays simply like this:
G D Em C
Eb---3---2---0---0--------------------|
Bb---3---3---0---1--------------------|
Gb---0---2---0---0--------------------|
Db---0---0---2---2--------------------|
Ab---2-------2---3--------------------|
Eb---3-------0------------------------|

what you have isn't wrong per se, it's just overly complicated. it still works, however, so good tab.

0 reply
mattplayscheap 2,379 Jun 06, 2010 09:06 PM

it isn't really all that complicated.. if you can do those chords than you can do the others. but i do understand what you mean.
I am not a fan at all of the band ..and I created this based on how I heard the song.. all by ear. It was how I heard it!

guest
You may want to rate the tab now too:
select rating
Wanna post a correction for this tab? Suggest correction