Oops, an error
Loading. Please wait.

Here For You Tab

version 2
version 2

Whole song

Interactive

18,569 views 3 this week
no commentswrite comment
1 2 3 4 5
excellent!
x 3
add to favorites
launch autoscroll
font size
0
reset
how to read this tab
guitar tuner
Tab Pro tools
  • play this tab
  • loop segment
  • change instrument
  • show fretboard
  • metronome
×
Best way to learn
"Here For You"
Autoscroll
slow
fast
+/-
esc
set tempo
stop
Intro:
e |--------------------|
B |--------------------|
G |-------0------------|
D |--0^2----0----------|
A |-----------0^2------|
E |--------------------|

Verse:
e |----------------------------------------------|
B |-------3---------1---------0---------0--------|
G |-----0---0-----0---0-----0---0---------0------|
D |----------------------------------------------|
A |------------0---------2-----------------------|
E |--3------------------------------3------------|

e |-------------------------------3----3---3-----|
B |-----------1--------3----------1----1-^-0-----|
G |-------------0--------2--------0----0---0-----|
D |------------------------0------0----0---0-----|
A |--0--2--3-------3-----------------------------|
E |---------------------------3------------------|

e |------------------|
B |------------------|
G |-------0----------|
D |--0^2-------------|
A |----------0^2-----|
E |------------------|

So you think you've got it all figured out
Well you know you can't make it alone
Everybody needs somebody to help them out
And you know I could be that someone

And if you ever get [Em]lost on life's highway
Don't know [Bm7]where to go
[C]There's just one thing that I [D]want you to know

[C]I am [D]here for [G]you
Whoa, whoa, [C]always [D]here for [G]you
When you need a [Em]shoulder to [Bm7]cry on
[C]Someone to [G]rely on
[C]I am [D]here for [G]you

So think that love is long overdue
Tired of looking for someone to care
Let me tell you now the choice is up to you
But you know I will always be there

[C]I am [D]here for [G]you
Whoa, whoa, [C]always [D]here for [G]you
When your needing [Em]someone to [Bm7]hold you
[C]Remember I [G]told you
[C]I am [D]here for [Em]you
[C]I am [D]here for [G]you

[Em] [Bm7] [C] [D] [Em] [Bm7] [C] [D]

So now you've got it all figured out
And you know you've found someone that cares
And if you ever need somebody to help you out
Well you know I will always be there

And if you ever get [Em]lost on life's highway
Don't know [Bm7]where to go
[C]There's just one thing that I [D]want you to know

[C]I am [D]here for [G]you
Whoa, whoa, [C]always [D]here for [G]you
When you need a [Em]shoulder to [Bm7]cry on
[C]Someone to [G]rely on
[C]I am [D]here for [G]you
Whoa, whoa, [C]always [D]here for [G]you
When your needing [Em]someone to [Bm7]hold you
[C]Remember I [G]told you
[C]I am [D]here for [Em]you
[C]I am [D]here for [G]you, yeah

Outro: Samme som intro, slutter p? [G]
comments
We did not receive enough feedback on this tab! Please rate:
print report bad tab
1 2 3 4 5
I want to post or [tab]
guest
You may want to rate the tab now too:
select rating
Please do not post tabs as comments. Select "correction" instead!