Oops, an error
Loading. Please wait.

Love Of A Life Time Tab

version 1
version 1

Whole song

  • This is what I came up with using my ears. :D.

Interactive

52 views 12 this week
no commentswrite comment
1 2 3 4 5
3 more votes to show rating
add to favorites
launch autoscroll
font size
0
reset
how to read this tab
guitar tuner
Autoscroll
slow
fast
+/-
esc
set tempo
stop
Help us to improve Ultimate-Guitar.com Take our survey!
×
Author
Difficulty
Tuning
intermediate
D# G# C# F# A# D#
About this tab version
This is what I came up with using my ears. :D. Was this info helpful? Yes No
Intro:
e|-----3-------0------3-------0-------0------2------0------0--2--3--2------|
B|----3-3-----3-3------5-----3-3-------1------3------1------3--3--3--3-----|
G|---0---0---2---2---4--4---2---2----0--0---2--2---0--0---2--2--2--2--2----|
D|--0-----0-0-----0-2----2-0-----0--2----2-4----4-2----2-0-------------0---|
A|---------------------------------0------2------3-------------------------|
E|-3-------2-------0-------------------------------------------------------|

Verse 1:
e|-----3-------0------3-------0-------0------2------0------0--2--3--2-0----|
B|----3-3-----3-3------5-----3-3-------1------3------1------3--3--3----3---|
G|---0---0---2---2---4--4---2---2----0--0---2--2---0--0---2--2--2--2----2--|  
D|--0-----0-0-----0-2----2-0-----0--2----2-4----4-2----2-0-----------------| x2
A|---------------------------------0------2------3-------------------------|
E|-3-------2-------0-------------------------------------------------------|

Pre-Chorus:
e|-0------0--0-----0------0--0------0-----0--0-----0----0---------|
B|-1------3---3----1------3---3-----1-----3---3----1----3---------|
G|-0------2----2---0------2----2----0-----2----2---0----2---------|             
D|-2------4-----4--2------4-----4---2-----4-----4--2----0---------|
A|-0------2--------0------2---------0-----2--------3--------------|
E|----------------------------------------------------------------|

Chorus 1:
e|--3-----2-----0-----0-----3-----2-----0-----0-------------------|
B|--3-----3-----1-----3-----3-----3-----1-----3-------------------|
G|--0-----2-----0-----2-----0-----2-----0-----2-------------------|
D|--0-----4-----2-----0-----0-----4-----2-----0-------------------|
A|--2-----2-----3-----------2-----2-----3-------------------------|
E|--3-----------------------3-------------------------------------|

e|--3-----2-----0-----0-----0-----2-----0-----0-------------------|
B|--3-----3-----1-----3-----1-----3-----1-----3-------------------|
G|--0-----2-----0-----2-----0-----2-----0-----2-------------------|
D|--0-----4-----2-----0-----2-----4-----2-----0-------------------|
A|--2-----2-----3-----------0-----2-----3-------------------------|
E|--3-------------------------------------------------------------|



Solo 1 - Rhythm Guitar:
e|--3-----2-----0-----0-----(3)-----------------------------------|
B|--3-----3-----1-----3-----(3)-----------------------------------|
G|--0-----2-----0-----2-----(0)-----------------------------------|
D|--0-----4-----2-----0-----(0)-----------------------------------|
A|--2-----2-----3-----------(2)-----------------------------------|
E|--3-----------------------(3)-----------------------------------|

Solo 1 – Lead Guitar:
e|----------------------------------------------------------------|
B|----------------------------------------8/10--8-----------------|
G|-/12--12/14-12-11--11/12-11-9--9/11-9-7-------------------------|
D|----------------------------------------------------------------|
A|----------------------------------------------------------------|
E|----------------------------------------------------------------|

Verse 2:
e|-----3-------0------3-------0-------0------2------0------0--2------------|
B|----3-3-----3-3------5-----3-3-------1------3------1------3--3-----------|
G|---0---0---2---2---4--4---2---2----0--0---2--2---0--0---2--2--2----------|    
D|--0-----0-0-----0-2----2-0-----0--2----2-4----4-2----2-0-----------------|
A|---------------------------------0------2------3-------------------------|
E|-3-------2-------0-------------------------------------------------------|

e|-----3-------0------3-------0-------0------2------0------0--2--3--2-0----|
B|----3-3-----3-3------5-----3-3-------1------3------1------3--3--3----3---|
G|---0---0---2---2---4--4---2---2----0--0---2--2---0--0---2--2--2--2----2--|    
D|--0-----0-0-----0-2----2-0-----0--2----2-4----4-2----2-0-----------------|
A|---------------------------------0------2------3-------------------------|
E|-3-------2-------0-------------------------------------------------------|

Chorus 2:
e|--3-----2-----0-----0-----3-----2-----0-----0-------------------|
B|--3-----3-----1-----3-----3-----3-----1-----3-------------------|
G|--0-----2-----0-----2-----0-----2-----0-----2-------------------|
D|--0-----4-----2-----0-----0-----4-----2-----0-------------------|
A|--2-----2-----3-----------2-----2-----3-------------------------|
E|--3-----------------------3-------------------------------------|

e|--3-----2-----0-----0-----0-----2-----0-----0-------------------|
B|--3-----3-----1-----3-----1-----3-----1-----3-------------------|
G|--0-----2-----0-----2-----0-----2-----0-----2-------------------|
D|--0-----4-----2-----0-----2-----4-----2-----0-------------------|
A|--2-----2-----3-----------0-----2-----3-------------------------|
E|--3-------------------------------------------------------------|

Solo 2 – Rhythm Guitar:
e|--3-----0-----0-----0-----0-----2-----0-----0--------------------|
B|--3-----3-----0-----3-----1-----3-----1-----3--------------------|
G|--0-----2-----0-----2-----0-----2-----0-----2--------------------|    
D|--0-----0-----2-----0-----2-----4-----2-----0--------------------|
A|--2-----0-----2-----------0-----2-----3--------------------------|
E|--3-----2-----0--------------------------------------------------|

Solo 2 – Lead Guitar:
e|--------------------------------------------------|
B|----------------------------------------8/10------|
G|-/12--12/14-12-11--11/12-11-9-9h11p9-7------------|
D|--------------------------------------------------|
A|--------------------------------------------------|
E|--------------------------------------------------|

e|--------------------------------------------------|
B|-----8-10b10br10p8--8-10br10p8--8-----------------|
G|-7/9---------------9----------9--9----------------|
D|--------------------------------------------------|
A|--------------------------------------------------|
E|--------------------------------------------------|
              T       t     t     t     t     t     t     t     t...
e|----10-12b-15prp12-14p10-14p10-14p10-14p10-14p10-14p10-14p10-14p10----------|
B|-/12------------------------------------------------------------------------|
G|----------------------------------------------------------------------------|
D|----------------------------------------------------------------------------|
A|----------------------------------------------------------------------------|
E|----------------------------------------------------------------------------|

    t     t     t     t     t     t     t     t...
e|-17p14-17p14-17p14-17p14-17p14-17p14-17p14-17p14---------|
B|---------------------------------------------------------|
G|---------------------------------------------------------|
D|---------------------------------------------------------|
A|---------------------------------------------------------|
E|---------------------------------------------------------|

    t     t     t     t     t     t     t     t...
e|-22p17-22p17-22p17-22p17-22p17-22p17-22p17-22p17---------|
B|---------------------------------------------------------|
G|---------------------------------------------------------|
D|---------------------------------------------------------|
A|---------------------------------------------------------|
E|---------------------------------------------------------|

    t     t     t     t     t     t     t     t...
e|-24p17-24p17-24p17-24p17-24p17-24p17-24p17-24p17------------|
B|------------------------------------------------------------|
G|------------------------------------------------------------|
D|------------------------------------------------------------|
A|------------------------------------------------------------|
E|------------------------------------------------------------|

    t    t    t    t    t    t    t    t...
e|-xp17-xp17-xp17-xp17-xp17-xp17-xp17-xp17--------------------|
B|------------------------------------------------------------|
G|------------------------------------------------------------|
D|------------------------------------------------------------|
A|------------------------------------------------------------|
E|------------------------------------------------------------|

Chorus 3: 
e|--0-----4-----0-----0------0-----4-----0------------------------|
B|--2-----5-----3-----0------2-----5-----3------------------------|
G|--2-----4-----2-----1------2-----4-----2------------------------|
D|--2-----6-----0-----2------2-----6-----0------------------------|
A|--0-----4-----------2------0-----4-----------6-7-9--------------|
E|--------------------0------------------------4-5-7--------------|

e|--0-----4-----0-----0------2-----4-----0-----0------------------|
B|--2-----5-----3-----0------3-----5-----3-----0------------------|
G|--2-----4-----2-----1------2-----4-----2-----1------------------|
D|--2-----6-----0-----2------4-----6-----0-----2------------------|
A|--0-----4-----------2------2-----4-----------2------------------|
E|--------------------0------------------------0------------------|

e|--0-----4-----0-----0------0-----4-----0------------------------|
B|--2-----5-----3-----0------2-----5-----3------------------------|
G|--2-----4-----2-----1------2-----4-----2------------------------|
D|--2-----6-----0-----2------2-----6-----0------------------------|
A|--0-----4-----------2------0-----4------------------------------|
E|--------------------0-------------------------------------------|

e|--0-----4-----0-----0------2-----4-----0-----0------------------|
B|--2-----5-----3-----0------3-----5-----3-----0------------------|
G|--2-----4-----2-----1------2-----4-----2-----1------------------|
D|--2-----6-----0-----2------4-----6-----0-----2------------------|
A|--0-----4-----------2------2-----4-----------2------------------|
E|--------------------0------------------------0------------------|

Outro:
e|-----0-------4-------0--------0-----0---------------------------|
B|----2-2-------5-----3-3--------0----2---------------------------|
G|---2---2----4--4---2---2-----1--1---2---------------------------|
D|--2-----2--6----6-0-----0---2----2--2---------------------------|
A|-0-------/4----------------2--------0---------------------------|
E|--------------------------0-------------------------------------|

*************************************************

| T Tap with finger
| t Tap/hammer with pick
| x Note beyond the fret board (above the pick 
| / Slide up 

*************************************************

If you have questions about this tab, email me @ btgbtg22@gmail.com! 
Suggest correction
Give kudos to tab author, rate the tab!
1 2 3 4 5
comments
print report bad tab
guest
You may want to rate the tab now too:
select rating
Wanna post a correction for this tab? Suggest correction