Oops, an error
Loading. Please wait.

Love Of A Lifetime Chords

version 1
version 1

Whole song

Interactive

68,000 views 27 this week
no commentswrite comment
1 2 3 4 5
1 last vote to show rating
add to favorites
launch autoscroll
font size
0
reset
transpose
0
reset
simplify chords
display chords
guitar tuner
Autoscroll
slow
fast
+/-
esc
set tempo
stop
Help us to improve Ultimate-Guitar.com Take our survey!
×
Author
inTRO (acoustic):
  keyboard    G5                D5(add9)/F#           Em
E ---------|-----------3-----------------0---------|----------3---------
B ---------|---------3---3-------------3---3-------|-------------5------
G ---------|-------0-------0---------2-------2-----|-------4-------4----
D ---------|-----0-----------0-----0-----------0---|-----2-----------2--
A ---------|---------------------------------------|--------------------
E ---------|--3-----------------2------------------|--0-----------------
    D5(add9)            Am7            Bm7                 C    
E ---------0---------|---------0--------------2---------|--------0------
B -------3---3-------|-----------1--------------3-------|----------1----
G -----2-------2-----|-------0-----0--------2-----2-----|------0-----0--
D --0------------0---|-----2---------2----4---------4---|----2---------2
A -------------------|--0--------------2----------------|--3------------
E -------------------|----------------------------------|---------------
    D5(add9)       Dsus            D
E ---------0-------2-------3-------2-----------|
B -----------3-------3-------3-----------3-----|
G -----2-------2-------2-------2-----------2---|
D --0------------------------------------------|
A ---------------------------------------------|
E ---------------------------------------------|
VERSE 1:
I ..
we'D ..
together ...
We'll ...
We ...
with ...
BRIDGE:
     Am7         Bm7    (B11)
With ..
   Am7               Bm7
will ...
     Am7           Bm7
With ...
  (B11)         C       D
You're ...
CHORUS:
  G5                    Bm       C5      D5
I ...
  G5                   Bm            C5    D5
A ...
  G5                    Bm       C5      D5
I ...
  A5          B5        C5         
Forever ..
D5          G5     Bm     C5     D5
love ...
VERSE 2:
With ..,
and ..
for ...
Still ...
We ..
because ...
(repeat Chorus)
INSTRUMENTAL (electric solo goes here):
C5  B5  A5  D5
                Oh! ............  I
A5                   C#5       D5      E/G#
finally ...
   A5                 C#5            D5    G#bar Abar Bbar
A ...
   A5                 C#5       D5      E5
I ...
   B5       C#5        D5
Forever ..
   E5            A5     C#5     D5
love ...
    E5        A5      C#5     D5
Love ...
   E5                   A5    C#5     D5
I ..
E5       B5               C#5
 Oo!  ..
    D5                  E5
I ..
of ...
    A                C#m                   D2(add9)       E
E ----------0-----------------4---------|--------0----------------0-----
B --------2---2-----------------5-------|------3---3----------------0---
G ------2-------2----------4------4-----|----2-------2----------1-----1-
D ----2-----------2------6----------6---|--0-----------0------2---------2
A --0---------------/4------------------|-------------------2-----------
E --------------------------------------|-----------------0-------------
        A
E --|---0------||
B --|---2------||
G --|---2------||
D --|---2------||
A --|---0------||
E --|----------||
CHORD DIAGRAMS:
G5     3x0033
Bm     024432
Am7    x02010
Bm7    x24232
B11    xx4230
G#bar  466544
Abar   577655
Bbar   799877
A5     x022xx
B5     x244xx
C5     x355xx
C#5    x466xx
D5     x577xx
E5     x799xx

great song tabbed by SLASH!....JUBO!
Suggest correction
Give kudos to tab author, rate the tab!
1 2 3 4 5
comments
print report bad tab
guest
You may want to rate the tab now too:
select rating
Wanna post a correction for this tab? Suggest correction