Oops, an error
Loading. Please wait.

Illusions tab

34 views 1 this week
no commentswrite comment
1 2 3 4 5
3 more votes to show rating
add to favorites
×
Save as Personal and add changes to this tab that will be seen only by you. Learn more ›
×
You can save this tab as Personal to edit and correct it or add notes. All changes will be seen only by you. Learn more »
launch autoscroll
font size
0
reset
how to read this tab
guitar tuner
edit
Autoscroll
slow
fast
+/-
esc
set tempo
stop
[Verse]
e|---------------------|---------------------|---------------------|---------------------|
B|---------------------|---------------------|---------------------|---------------------|
G|---------------------|---------------------|---------------------|---------------------|
D|---------------------|---------------------|---------------------|---------------------| x2
A|---------------------|---------------------|---------------------|---------------------|
D|7-7-7-7-7-7-------8--|7-7-7-7-7-7-------8--|7-7-7-7-7-7-------8--|7-7-7-7-7-8----5-5---|
  * * * * * *       *   * * * * * *       *   * * * * * *       *   * * * * * *    * *   
e|----------------------|------------------------|----------------------|-----------------------|
B|----------------------|------------------------|----------------------|-----------------------|
G|----------------------|------------------------|----------------------|-----------------------|
D|----------------------|------------------------|----------------------|-----------------------| x2
A|----------------------|------------------------|----------------------|-----------------------|
D|7-7-7-7-7-7-----5--8--|7-7-7-7-7-7---5-5--8-8--|7-7-7-7-7-7--5--5--8--|7-7-7-7-7-8----5-5--8--|
  * * * * * *     *  *   * * * * * *   * *  * *   * * * * * *  *  *  *   * * * * * *    * *  *   

[Pre-Chorus]
e|10--------8--11--10--|------------5--10----|------8--11--10------|
B|---------------------|---------------------|---------------------|
G|---------------------|---------------------|---------------------|
D|---------------------|---------------------|---------------------|
A|---------------------|---------------------|---------------------|
D|---------------------|---------------------|---------------------|

e|-------------------------|--------------------------|-------------------------|-------------------------|
B|-------------------------|--------------------------|-------------------------|-------------------------|
G|-------------------------|--------------------------|-------------------------|-------------------------|
D|7-7-7-7-7-7--5--5--8--7--|7-7-7-7-7-7----5-5--5--5--|7-7-7-7-7-7--5--5--8--7--|7-7-7-7-7-8----5-5--8-8--|
A|7-7-7-7-7-7--5--5--8--7--|7-7-7-7-7-7----5-5--5--5--|7-7-7-7-7-7--5--5--8--7--|7-7-7-7-7-8----5-5--8-8--|
D|7-7-7-7-7-7--5--5--8--7--|7-7-7-7-7-7----5-5--5--5--|7-7-7-7-7-7--5--5--8--7--|7-7-7-7-7-8----5-5--8-8--|

e|-------------------------|--------------------------|-------------------------|-------------------------|
B|-------------------------|--------------------------|-------------------------|-------------------------|
G|-------------------------|--------------------------|-------------------------|-------------------------|
D|7-7-7-7-7-7--5--5--8--7--|7-7-7-7-7-7----5-5--5--5--|7-7-7-7-7-7--5--5--8--7--|7-7-7-7-7-8----5-5--8-8--|
A|7-7-7-7-7-7--5--5--8--7--|7-7-7-7-7-7----5-5--5--5--|7-7-7-7-7-7--5--5--8--7--|7-7-7-7-7-8----5-5--8-8--|
D|7-7-7-7-7-7--5--5--8--7--|7-7-7-7-7-7----5-5--5--5--|7-7-7-7-7-7--5--5--8--7--|7-7-7-7-7-8----5-5--8-8--|

[Verse]
e|----------------------|------------------------|----------------------|-----------------------|
B|----------------------|------------------------|----------------------|-----------------------|
G|----------------------|------------------------|----------------------|-----------------------|
D|----------------------|------------------------|----------------------|-----------------------| x2
A|----------------------|------------------------|----------------------|-----------------------|
D|7-7-7-7-7-7-----5--8--|7-7-7-7-7-7---5-5--8-8--|7-7-7-7-7-7--5--5--8--|7-7-7-7-7-8----5-5--8--|
  * * * * * *     *  *   * * * * * *   * *  * *   * * * * * *  *  *  *   * * * * * *    * *  *  

e|------------------------------|----------------------------------|
B|------------------------------|----------------------------------|
G|------------------------------|----------------------------------|
D|------------------------------|----------------------------------|
A|------------------------------|----------------------------------|
D|12-12-12-12-12-12-----10--13--|12-12-12-12-12-12---10-10--13-13--|
  *  *  *  *  *  *      *   *    *  *  *  *  *  *    *  *   *  *   

e|-------------------------------|--------------------------------|
B|-------------------------------|--------------------------------|
G|-------------------------------|--------------------------------|
D|-------------------------------|--------------------------------|
A|-------------------------------|--------------------------------|
D|12-12-12-12-12-12--10--10--13--|12-12-12-12-12-13----10-10--13--|
  *  *  *  *  *  *   *   *   *    *  *  *  *  *  *     *  *   *

[Pre-Chorus]
e|10--------8--11--10--|------------5--10----|------8--11--10------|
B|---------------------|---------------------|---------------------|
G|---------------------|---------------------|---------------------|
D|---------------------|---------------------|---------------------|
A|---------------------|---------------------|---------------------|
D|---------------------|---------------------|---------------------|

e|-------------------------|--------------------------|-------------------------|-------------------------|
B|-------------------------|--------------------------|-------------------------|-------------------------|
G|-------------------------|--------------------------|-------------------------|-------------------------|
D|7-7-7-7-7-7--5--5--8--7--|7-7-7-7-7-7----5-5--5--5--|7-7-7-7-7-7--5--5--8--7--|7-7-7-7-7-8----5-5--8-8--|
A|7-7-7-7-7-7--5--5--8--7--|7-7-7-7-7-7----5-5--5--5--|7-7-7-7-7-7--5--5--8--7--|7-7-7-7-7-8----5-5--8-8--|
D|7-7-7-7-7-7--5--5--8--7--|7-7-7-7-7-7----5-5--5--5--|7-7-7-7-7-7--5--5--8--7--|7-7-7-7-7-8----5-5--8-8--|

e|-------------------------|--------------------------|-------------------------|-------------------------|
B|-------------------------|--------------------------|-------------------------|-------------------------|
G|-------------------------|--------------------------|-------------------------|-------------------------|
D|7-7-7-7-7-7--5--5--8--7--|7-7-7-7-7-7----5-5--5--5--|7-7-7-7-7-7--5--5--8--7--|7-7-7-7-7-8----5-5--8-8--|
A|7-7-7-7-7-7--5--5--8--7--|7-7-7-7-7-7----5-5--5--5--|7-7-7-7-7-7--5--5--8--7--|7-7-7-7-7-8----5-5--8-8--|
D|7-7-7-7-7-7--5--5--8--7--|7-7-7-7-7-7----5-5--5--5--|7-7-7-7-7-7--5--5--8--7--|7-7-7-7-7-8----5-5--8-8--|

[Middle 8]
e|---------------------|---------------------|---------------------|---------------------|
B|---------------------|---------------------|---------------------|---------------------|
G|7--------------------|---------------------|5--------------------|---------------------|
D|7--------------------|---------------------|5--------------------|---------------------|
A|5--------------------|---------------------|3--------------------|---------------------|
D|---------------------|---------------------|---------------------|---------------------|

e|---------------------|---------------------|---------------------|---------------------|
B|---------------------|---------------------|---------------------|---------------------|
G|7--------------------|5--------------------|7--------------------|2--------------------|
D|7--------------------|5--------------------|7--------------------|2--------------------|
A|5--------------------|3--------------------|5--------------------|0--------------------|
D|---------------------|---------------------|---------------------|---------------------|

e|------------------------|------------------------|------------------------|------------------------|
B|------------------------|------------------------|------------------------|------------------------|
G|------------------------|------------------------|------------------------|------------------------|
D|0-0-3h5--0-0-5h6--0h3p0-|0-0-3h5--0-0-5h6--0h3p0-|0-0-3h5--0-0-5h6--0h3p0-|0-0-3h5--0-0-5h6--0h3p0-| x2
A|0-0-3h5--0-0-5h6--0h3p0-|0-0-3h5--0-0-5h6--0h3p0-|0-0-3h5--0-0-5h6--0h3p0-|0-0-3h5--0-0-5h6--0h3p0-|
D|0-0-3h5--0-0-5h6--0h3p0-|0-0-3h5--0-0-5h6--0h3p0-|0-0-3h5--0-0-5h6--0h3p0-|0-0-3h5--0-0-5h6--0h3p0-|

e|---------------------|---------------------|---------------------|---------------------|
B|---------------------|---------------------|---------------------|---------------------|
G|7--------------------¦---------------------|5--------------------|---------------------|
D|7--------------------¦---------------------|5--------------------|---------------------|
A|5--------------------¦---------------------|3--------------------|---------------------|
D|---------------------|---------------------|---------------------|---------------------|

e|---------------------|---------------------|---------------------|---------------------|
B|---------------------|---------------------|---------------------|---------------------|
G|7--------------------|5--------------------|7--------------------|2--------------------|
D|7--------------------|5--------------------|7--------------------|2--------------------|
A|5--------------------|3--------------------|5--------------------|0--------------------|
D|---------------------|---------------------|---------------------|---------------------|

[Pause]
e|---------------------|---------------------|---------------------|---------------------|
B|---------------------|---------------------|---------------------|---------------------|
G|---------------------|---------------------|---------------------|---------------------|
D|---------------------|---------------------|---------------------|-----------------7\--|
A|---------------------|---------------------|---------------------|-----------------7\--|
D|---------------------|---------------------|---------------------|-----------------7\--|

[Middle 8 continued]
e|------------------------|------------------------|------------------------|------------------------|
B|------------------------|------------------------|------------------------|------------------------|
G|------------------------|------------------------|------------------------|------------------------|
D|0-0-3h5--0-0-5h6--0h3p0-|0-0-3h5--0-0-5h6--0h3p0-|0-0-3h5--0-0-5h6--0h3p0-|0-0-3h5--0-0-5h6--0h3p0-| x2
A|0-0-3h5--0-0-5h6--0h3p0-|0-0-3h5--0-0-5h6--0h3p0-|0-0-3h5--0-0-5h6--0h3p0-|0-0-3h5--0-0-5h6--0h3p0-|
D|0-0-3h5--0-0-5h6--0h3p0-|0-0-3h5--0-0-5h6--0h3p0-|0-0-3h5--0-0-5h6--0h3p0-|0-0-3h5--0-0-5h6--0h3p0-|

e|------------------------|------------------------|------------------------|----------------------|
B|------------------------|------------------------|------------------------|----------------------|
G|------------------------|------------------------|------------------------|----------------------|
D|0-0-3h5--0-0-5h6--0h3p0-|0-0-3h5--0-0-5h6--0h3p0-|0-0-3h5--0-0-5h6--0h3p0-|0-0-3h5------3-3--6-6-| x3
A|0-0-3h5--0-0-5h6--0h3p0-|0-0-3h5--0-0-5h6--0h3p0-|0-0-3h5--0-0-5h6--0h3p0-|0-0-3h5------3-3--6-6-|
D|0-0-3h5--0-0-5h6--0h3p0-|0-0-3h5--0-0-5h6--0h3p0-|0-0-3h5--0-0-5h6--0h3p0-|0-0-3h5------3-3--6-6-|

e|-----------------------|-----------------------|-----------------------|-----------------------|
B|-----------------------|-----------------------|-----------------------|-----------------------|
G|-----------------------|-----------------------|-----------------------|-----------------------|
D|0----------------------|-----------------------|-----------------------|-----------------------|
A|0----------------------|-----------------------|-----------------------|-----------------------|
D|0----------------------|-----------------------|-----------------------|-----------------------|
 

************************************

 
* = palm mute
h = hammer on 
p = pull off

************************************
Suggest correction
Creating personal tab
Creating personal tab
You can edit any tab online and save it as your Personal.

You can edit, replace or remove any tab part or add personal notes – all changes will be seen only by you.

Personal tabs can be accessed anytime from any device, even offline.
Learn more »
Give kudos to tab author, rate the tab!
1 2 3 4 5
comments
print report bad tab
guest
You may want to rate the tab now too:
select rating
Wanna post a correction for this tab? Suggest correction