Oops, an error
Loading. Please wait.

Breaking The Silence Bass Tab

version 1
version 1

Whole song

Interactive

1,458 views 3 this week
no commentswrite comment
1 2 3 4 5
accurate
x 2
add to favorites
launch autoscroll
font size
0
reset
guitar tuner
Tab Pro tools
  • play this tab
  • loop segment
  • change instrument
  • show fretboard
  • metronome
Autoscroll
slow
fast
+/-
esc
set tempo
stop
Contributor
"Breaking the Silence" - Firewind

Tuning: D, G, C, F


Intro
F|---------------------------------------------------------------------------|
C|---------------------------------------------------------------------------|
G|---------------------------------3-3-3-3-3-3-3-3-3-3-3-3-3-3--3-2----------|
D|-0-0-0-0-0-0-0-0-0-0-0-0-0-2-3-5-------------------------------------------|

F|---------------------------------------------------------------------------|
C|---------------------------------------------------------------------------|
G|---------------------------------3-3-3-3-3-3-3-3-3-3-3-3-3-3--3-2--6-------|
D|-0-0-0-0-0-0-0-0-0-0-0-0-0-2-3-5-------------------------------------------|

F|---------------------------------------------------------------------------|
C|---------------------------------------------------------------------------|
G|---------------------------------3-3-3-3-3-3-3-3-3-3-3-3-3-3--3-2----------|
D|-0-0-0-0-0-0-0-0-0-0-0-0-0-2-3-5-------------------------------------------|

F|-------------------------------------------------|
C|-------------------------------------------------|
G|---------------------------------3~---0~---2~----|
D|-0-0-0-0-0-0-0-0-0-0-0-0-0-2-3-5-----------------|

Verse


F|-----------------------------------------------------------------|
G|-----------------------------------------------------------------|
C|-------------------------7---5-7---------------------------------|
D|-0-0-0-0-0-0-0-0-0-0-0-0---0-----0-0-0-0-0-0-0-0-0-0-0-0-0-0-0-0-| x2

F|-----------------------------------------------------------------|
G|-----------------------------0-2---------------------------------|
C|-------------------------0-2-------------------------------------|
D|-0-0-0-0-0-0-0-0-0-0-0-0---------0-0-0-0-0-0-0-0-0-0-0-0-0-0-0-0-|

Alternate way of playing the bar above if you want to follow the guitar
F|-------------------------------------------------------------------|
G|-----------------------------0-2-----------------------------------|
C|-------------------------0-2-----------------------10-----7------9-|
D|-0-0-0-0-0-0-0-0-0-0-0-0---------0-0-0-0-0-0-0-0-0----0-7---0-10---|

F|--------------------------------------------|
G|-----------------------------0-2------------|
C|-------------------------0-2------5~---2~---|
D|-0-0-0-0-0-0-0-0-0-0-0-0--------------------|

Pre-Chorus
F|----------------------------------------------|
G|-----5--4--------------------5--7----5--4--5--|
C|-3-----------5--3--2-----0--------------------|
D|----------------------------------------------|

F|-------------------------------------------------------------------|
G|-------------------------------------------------------------------|
C|-------------------------------------------------------------------|
D|-1-0-0-0-0-0-0-0-0-0-0-0-0-0-0-0-0-1-0-0-0-0-0-0-0-0-5-3-0-3-2-0-2-|

F|----------------------------------------------|
G|-----5--4--------------------5--7----5--4--5--|
C|-3-----------5--3--2-----0--------------------|
D|----------------------------------------------|

F|--------------------------------|
G|--------------------------------|
C|-2---2---3---------4---4----6~--|
D|--------------------------------|

Chorus
F|-----------------------------------------------------------------------------------------------|
G|-----------------------------------------------------------------------------------------------|
C|---------------------------------------------5-5------------------------------------3----4---6-|

x2

Intro
Verse
Pre-Chorus
Chorus

Bridge
F|---------------------------------------------------------------------------|
G|---------------------------------------------------------------------------|
C|---------------------------------------------------------------------------|
D|---------------------------------------------------------------------------|

F|-------------------------------------------------------------------|
G|-------------------------------------------------------------------|
C|-------------------------------------------------------------------|
D|-12/--0--0--0--0--0--0--0--2-3-2-3---0--0--0--0--0-5-3-0-3-2-0-2---|

F|--------------------------------------------------------------|
G|--------------------------------------------------------------|
C|--------------------------------------------------------------|
D|-0--0--0--0--0--0--2-3-2-3----2-0-3---2-0-5---3-2-5----3-2----|

Solo
F|------------------------------------------------------------------|
G|------------------------------------------------------------------|
C|-0--0-0-0-0-0-3-0-2--0-0-0-0-0--2-0-5--0-0-0-0-5-0--------3-------|
D|----------------------------------------------------3--5-----3----|

F|---------------------------------------------------------------------------|
G|---------------------------------------------------------------------------|
C|-----------------3-3-3-3-3-3-3-3-5-5-5-5-5-5-5-5--5-0-6-5-0-3-5-0----------|
D|-1-1-1-1-1-1-1-0-----------------------------------------------------------|

F|------------------------------------------------------------------|
G|------------------------------------------------------------------|
C|-0--0-0-0-0-0-3-0-2--0-0-0-0-0--2-0-5--0-0-0-0-5-0--------3-------|
D|----------------------------------------------------3--5-----3----|

F|-----------------------------------------------------------------------------|
G|-----------------------------------------------------------------------------|
C|-----------------3-3-3-3-3-3-3-3---2---2--6-----Start of final Chorus--------|
D|-1-1-1-1-1-1-1-0--------------------------------0----0-----------------------|

Chorus

Intro X1

F|------------------------------------------------------------------------|
G|------------------------------------------------------------------------|
C|----------------------------------------------------------------------7-|
D|-0-0-0-0-0-0-0-0-0-0-0-0-0-2-3-2----2-0-3---2-0-5---3-2-5----3-2--------|
comments
We did not receive enough feedback on this tab! Please rate:
print report bad tab
1 2 3 4 5
I want to post or [tab]
guest
You may want to rate the tab now too:
select rating
Please do not post tabs as comments. Select "correction" instead!