Oops, an error
Loading. Please wait.

Broken Tab

2,187 views 1 this week
3 commentsread comments
1 2 3 4 5
please rate
add to favorites
launch autoscroll
font size
0
reset
how to read this tab
guitar tuner
Autoscroll
slow
fast
+/-
esc
set tempo
stop
Help us to improve Ultimate-Guitar.com Take our survey!
×
Author
Difficulty
novice
Broken
Firewind
Days of Defiance

This is the intro for Broken, Its played on acoustic, if i ever get the rest of it 
i will post it. Please rate, comment, and enjoy :D

Cm        Fm                   Bb      Eb 
e|----------------|---------------------------|-----------------|
B|----------------|---------------------------|-----------------|
G|------12--10----|--10--------------10--8----|--7h8p7-8-10-12--|
D|--10------------|-----13-12-10-8------------|-----------------|
A|----------------|---------------------------|-----------------|
E|----------------|---------------------------|-----------------|

    Cm        Fm            Ab            Bb
e|----------------|--11/13--10----|--8---6--4--3----|
B|----------------|--13/15--11----|--9---8--6--4----|
G|------12--10----|---------------|-----------------|
D|--10------------|---------------|-----------------|
A|----------------|---------------|-----------------|
E|----------------|---------------|-----------------|
Suggest correction
What's this?
You can suggest a correction to this tab. Community and Mods will review your correction and vote to approve or reject it.
comments
We did not receive enough feedback on this tab! Please rate:
print report bad tab
1 2 3 4 5
3 comments total.
0 reply
dragonzrmetal 575 wrote on August 31 2014, 07:21 am

Cm Fm Bb Eb
D|----------------|---------------------------|-----------------|
A|----------------|---------------------------|-----------------|
F|------14--12----|---12--------------12--10--|--7h8p7-8-10-12--|
C|--12------------|-----15-14-12-10-----------|-----------------|
G|----------------|---------------------------|-----------------|
D|----------------|---------------------------|-----------------|

Cm Fm Ab Bb
D|----------------|--13/15--12----|--10---8--6--5---|
A|----------------|--15/17--13----|--11---10--8--6--|
F|------14--12----|---------------|-----------------|
C|--12------------|---------------|-----------------|
G|----------------|---------------|-----------------|
D|----------------|---------------|-----------------|

0 reply
dragonzrmetal 575 wrote on August 31 2014, 07:21 am

Cm Fm Bb Eb
D|----------------|---------------------------|-----------------|
A|----------------|---------------------------|-----------------|
F|------14--12----|---12--------------12--10--|--7h8p7-8-10-12--|
C|--12------------|-----15-14-12-10-----------|-----------------|
G|----------------|---------------------------|-----------------|
D|----------------|---------------------------|-----------------|

Cm Fm Ab Bb
D|----------------|--13/15--12----|--10---8--6--5---|
A|----------------|--15/17--13----|--11---10--8--6--|
F|------14--12----|---------------|-----------------|
C|--12------------|---------------|-----------------|
G|----------------|---------------|-----------------|
D|----------------|---------------|-----------------|

0 reply
dragonzrmetal 575 wrote on August 31 2014, 07:22 am

I can't add a correction for some reason. Anyway, I just changed it to D Standard, as Gus plays in.

guest
You may want to rate the tab now too:
select rating
Please do not post tabs as comments. Select "correction" instead!