Oops, an error
Loading. Please wait.

Confide Tab

version 1
version 1

Whole song

2,285 views 1 this week
2 commentsread comments
1 2 3 4 5
please rate
add to favorites
launch autoscroll
font size
0
reset
how to read this tab
guitar tuner
Autoscroll
slow
fast
+/-
esc
set tempo
stop
Help us to improve Ultimate-Guitar.com Take our survey!
×
Author
Tuning:standard 1 step down (DGCFAd)
(*)strum



Intro:

d|-----------0-----------------0----------------0----------------0-------|
A|---------0---0-------------0---0------------6---6------------0---0-----|
F|------5--------5--------5--------5--------7-------7--------7-------7---|
C|----7------------7----7------------7----7-----------7----6-----------6-|
G|--0-----------------8-----------------5----------------7---------------|
D|-----------------------------------------------------------------------|

d|-----------0-----------------0----------------0------------------0-----|
A|---------0---0-------------0---0------------0---0-------------0--------|
F|------5--------5--------5--------5--------5-------5---------7----------|
C|----7------------7----7-----------------7------------0----6------------|
G|--0-----------------8--------------7--6-----------------7--------------|
D|-----------------------------------------------------------------------|


Verse:

d|-----------0-----------------0----------------0----------------0-------|
A|---------0---0-------------0---0------------6---6------------0---0-----|
F|------5--------5--------5--------5--------7-------7--------7-------7---|
C|----7------------7----7------------7----7-----------7----6-----------6-|
G|--0-----------------8-----------------5----------------7---------------|
D|-----------------------------------------------------------------------|

d|-----------0-----------------0----------------0------------------0----|
A|---------0---0-------------0---0------------0---0-------------0-------|
F|------5--------5--------5--------5--------5-------5---------7---------| (2)
C|----7------------7----7-----------------7------------0----6-----------|
G|--0-----------------8--------------7--6-----------------7-------------|
D|----------------------------------------------------------------------|

d|------------0----------------0---------------0---------------0-----|
A|---------6----6------------5---5-----------5---5-----------3---3---|
F|-------7--------7--------6-------6-------0-------0-------4-------4-|
C|-----7-----------------7---------------5---------------5-----------|
G|---5--------------5-4--------------4-3-------------3-2-------------|
D|-------------------------------------------------------------------|

d|------------0---------------0---------------0---------------1----|
A|--------3-----3---------3-----3-----------3--3------------3--3---|
F|------2---------2-----2---2-----2-------4------4--------0-----0--|
C|----0-----0-------0-------------------5---------------3----------|
G|--2-----------------3-------------3-2-------------2-1------------|
D|-----------------------------------------------------------------|

d|------------0----------------0--------------------0--------0----------|
A|----------1---1------------1---1---------------2----2------2----------|
F|--------0-------0--------0-------0----------0---------0----0----------|
C|------3-----------3----3-----------------2-----------------2----------|
G|--0----------------------------------0---------------------0----------|
D|----3---------------3-------------------------------------------------|
                                                             *

Chorus:

     F     C     Gm   Dm     F     Bb    C
d|---1-----0-----3-----1-----1-----------0-------|
A|---1-----1-----3-----3-----1-----3-----1-------|
F|---2-----0-----3-----2-----2-----3-----0-------|
C|---3-----2-----5-----0-----3-----3-----2-------|
G|---3-----3-----5-----------3-----1-----3-------|
D|---1-----------3-----------1-------------------|
     *     *     *     *     *     *     *

     F     C     Gm   Dm     Bb    C     A7                Dm9
d|---1-----0-----3-----1-----------0-----0------------0-----0----|
A|---1-----1-----3-----3-----3-----1-----2--------6-----6---6----|
F|---2-----0-----3-----2-----3-----0-----0----------7-----7-5----|
C|---3-----2-----5-----0-----3-----2-----x------7-----------7----|
G|---3-----3-----5-----------1-----3-----4----5-------------5----|
D|---1-----------3-----------------------------------------------|
     *     *     *     *
                                    Dm9   E
d|---0------0-----------------0------0----0------|
A|-----6------6-----------6-----6----6----0------|
F|-------5------5-----------7-----7--5----1------|
C|----------------------7------------7----2------|
G|--------------------5--------------5----2------|
D|----------------------------------------0------|

Verse, Chorus...

Before solo:

     F     C     Gm   Dm     Bb    C     A7                Dm9   E
d|---1-----0-----3-----1-----------0-----0------------0-----0----0-|
A|---1-----1-----3-----3-----3-----1-----2--------6-----6---6----0-|
F|---2-----0-----3-----2-----3-----0-----0----------7-----7-5----1-|
C|---3-----2-----5-----0-----3-----2-----x------7-----------7----2-|
G|---3-----3-----5-----------1-----3-----4----5-------------5----2-|
D|---1-----------3-----------------------------------------------0-|
     *     *     *     *


Solo chords(same as verse)..

SOLO:(just 1 guitar standard tuning EADGBe)

e|-------------5-6-8-8bp6-8b~---5--6--8--6--5h6p5---5-------------|
B|-----------8------------------------------------6---6-----------|
G|---------7--------------------------------------------7--5h7-5~-|
D|----10\8--------------------------------------------------------|
A|----------------------------------------------------------------|
E|----------------------------------------------------------------|

e|-8--10-----8--10------------0---6--6/9---10bp8--10~-------------|
B|-------11~--------------------8---------------------------------|
G|-----------------8~---8-7-6-------------------------------------|
D|----------------------------------------------------------------|
A|----------------------------------------------------------------|
E|----------------------------------------------------------------|

e|---------10---11---13bp11-13~---10-11-13-11-10---11-10h11p10------------|
B|----13----------------------------------------13------------13-11-11h13~|
G|/12----12--12---12------------------------------------------------------|
D|------------------------------------------------------------------------|
A|------------------------------------------------------------------------|
E|------------------------------------------------------------------------|

e|10b-8h10p8---8---------------------------------------------------------|
B|-----------11--11-8---8------------------------------------------------|
G|--------------------11--11\10-8------8h10p8---8------------------------|
D|--------------------------------10-10-------10--10-8-------------------|
A|-----------------------------------------------------10-9-8--8h9p8--8~-|
E|-----------------------------------------------------------11-----11---|

e|--------------------------|
B|--------------------------|
G|--------------------------|
D|--------------------------|
A|-6h8p6\5-6-5tr6-----------|
E|--------------------------|


e|-----------------------------------------------------------|
B|-----------------------------------------8h9h11-8h9h11-----|
G|---------------------------7h8h10-7h8h10-------------------|
D|-------------6h8h10-6h8h10---------------------------------|
A|5h6h8-6h8h10-----------------------------------------------|
E|-----------------------------------------------------------|

e|-8h10h11-10-11-13-11-13^-13-11h13p11--10b--10bp8-10-------|
B|----------------------------------------------------------|
G|----------------------------------------------------------|
D|----------------------------------------------------------|
A|----------------------------------------------------------|
E|----------------------------------------------------------|

e|---------------------------------|
B|-8bp6-8--------------------------|
G|---------7bp5-7--5h7-4-5-7-8~----|
D|---------------------------------|
A|---------------------------------|
E|---------------------------------|


Chorus..

Intro to last chorus:

     F     C     Gm   Dm     Bb    C
d|---1-----0-----3-----1-----------0----x------|
A|---1-----1-----3-----3-----3-----1----x------|
F|---2-----0-----3-----2-----3-----0----x------|
C|---3-----2-----5-----0-----3-----2----x------|
G|---3-----3-----5-----------1-----3----x------|
D|---1-----------3----------------------x------|
     *     *     *     *     *          *

End:
     F     C     Gm   Dm     Bb    C              Dm9
d|---1-----0-----3-----1-----------0--------------0-----------|
A|---1-----1-----3-----3-----3-----1---------2----6-----------|
F|---2-----0-----3-----2-----3-----0-------0------5-----------|
C|---3-----2-----5-----0-----3-----2-----2--------7-----------|
G|---3-----3-----5-----------1-----3---0----------5-----------|
D|---1-----------3--------------------------------------------|
     *     *     *     *
Suggest correction
What's this?
You can suggest a correction to this tab. Community and Mods will review your correction and vote to approve or reject it.
comments
We did not receive enough feedback on this tab! Please rate:
print report bad tab
1 2 3 4 5
2 comments total.
0 reply
Kreuger 1,433 wrote on September 10 2008, 09:58 pm

Please do the solo

0 reply
crmrz 4,925 wrote on September 11 2008, 03:09 am

I just added the solo, but for 1 guitar only(there's 2 guitars on the record)

guest
You may want to rate the tab now too:
select rating
Please do not post tabs as comments. Select "correction" instead!