Oops, an error
Loading. Please wait.

Falling To Pieces Tab

version 1
version 1

Whole song

Interactive

6,755 views 1 this week
10 commentsread comments
1 2 3 4 5
accurate
x 9
add to favorites
launch autoscroll
font size
0
reset
how to read this tab
guitar tuner
Autoscroll
slow
fast
+/-
esc
set tempo
stop
Help us to improve Ultimate-Guitar.com Take our survey!
×
Contributor
Difficulty
Tuning
aenimafist 1,015
intermediate
D A D G B E
It took me a while but I finally figured out the entirety of this song.  I am really bad 
figuring out solos so I didn't put that on but I am confidenet that the rest of this 
will be correct!
If there is something wrong, e-mail me or leave a comment.

aenimafist@yahoo.com

Tuning:Drop D

Lets get started.
Intro I already tabbed this and it was not right.
To play the intro, keep your middle finger on the 3s and use your other appendages as 
 Use your fingers to pick this part with your middle and ring finger while holding the 
in your thumb and index finger.
 ^     ^     ^     ^     ^   ^   ^     ^     ^     ^     ^   ^
 e e e e e e e e e e e e e e e e e e e e e e e e e e e e e e e e
|5-5-5-3-3-0-1-1-1-0-0-0-1-1-0-----------------------------------|
|3-3-3-3-3-3-3-3-3-3-3-3-3-3-3-3-3-3-3-3-3-3-3-3-3-3-3-3-3-3-3-3-|
|------------------------------2-5-5-5-5-5-2-3-3-3-3-3-3-3-3-5-5-|
|----------------------------------------------------------------|
|----------------------------------------------------------------|
|----------------------------------------------------------------|
 ^     ^     ^     ^     ^   ^   ^     ^     ^     ^     ^   ^
 e e e e e e e e e e e e e e e e e e e e e e e e e e e e e e e e
|5-5-5-3-3-0-1-1-1-0-0-0-1-1-0-0-6-6-6-6-6-3-5-5-5-5-5-5-5-5-5-5-|
|3-3-3-3-3-3-3-3-3-3-3-3-3-3-3-3-3-3-3-3-3-3-3-3-3-3-3-3-3-3-3-3-|
|----------------------------------------------------------------|
|----------------------------------------------------------------|
|----------------------------------------------------------------|
|----------------------------------------------------------------|

Play first bar again.
 e e e e e e e e e e e e e e q q    q.    q.    e   q.    e e e e e   e e e
|5-5-5-3-3-0-1-1-1-0-0-0-1-1-0----------------------------------------------|
|3-3-3-3-3-3-3-3-3-3-3-3-3-3-3----------------------------------------------|
|---------------------------------------------------------------------------|
|-----------------------------------10----10----7---8-----------------------|
|-----------------------------------10----10----7---8-----------------------|
|-----------------------------/19\--10----10----7---8-----8-7-5-3-3~(3)-2-0-|
                             The spacing is off but if you are viewing    this tab, you 
know how the song goes.

Intro/Chorus
 e e e e e e e e e e e e e e e e e e e q    e q w
|---------------------------------------------------------------|
|---------------------------------------------------------------|
|--------------------------------5-5-5-5------3-----------------|
|--------------------------------5-5-5-5------3-----------------|
|0-0-0-0-0-0-0-0-0-0-0-0-0-0-0-0-3-3-3-3------1-----------------|
|0-0-0-0-0-0-0-0-0-0-0-0-0-0-0-0------------5-------------------|
                                            .
 e e e e e e e e e e e e e e e e e e e q    e q   e e e e e e e
|---------------------------------------------------------------|
|---------------------------------------------------------------|
|---------------------------------------------------------------|
|---------------------------------------------------------------|
|0-0-0-0-0-0-0-0-0-0-0-0-0-0-3-3-5-5-5-5----x-3---3-3-3-3-3-3-3-|
|0-0-0-0-0-0-0-0-0-0-0-0-0-0-3-3-5-5-5-5----x-3---3-3-3-2-2-2-2-|

Play both bars twice total
 e e e e e e q
|----------------|
|----------------|
|----------------|
|----------------|
|----------------|
|0-0--------/19\-|

Verse
 e e  e e e e  e e e e e e e e e e e e  e e  e e  e q.    e e e e e e e
|-----------------------------------------------------------------------|
|-----------------------------------------------------------------------|
|--14---10--12---7-------------------15---12---14-----------------------|
|-----------------------------------------------------------------------|
|--12---8---10---5-0-0-0-0-0-0-0-0---13---10---12---3-----3-3-3-3-3-3-3-|
|0----0---0----0---0-0-0-0-0-0-0-0-0----0----0----0-3-----3-3-3-2-2-2-2-|
 .    .   .    .   . . . . . . . . .    .    .    .

 e e  e e e e  e e e e e e e e e e e e  e e  e e  e q.    e e e e e e e
|-----------------------------------------------------------------------|
|-----------------------------------------------------------------------|
|--14---10--12---7-------------------15---12---14-----------------------|
|-----------------------------------------------------------------------|
|--12---8---10---5-0-0-0-0-0-0-0-0-0-13---10---12---5-----5-5-5-8-8-8-8-|
|0----0---0----0---0-0-0-0-0-0-0-0-0----0----0----0-5-----5-5-5-8-8-8-8-|
 .    .   .    .   . . . . . . . . .    .    .    .

Play both bars twice total.

Pre-Chorus
Not entirely sure about note lengths
 h       q   q.    e h.              h       q   q.    q.   e e e e
|-------------------------------------------------------------------|
|-------------------------------------------------------------------|
|-------------------------------------------------------------------|
|--------4---2-----0------------------------/4----------------------|
|2-----------------------------------0-----------4-----4----4-5-4-0-|
|-------------------------------------------------------------------|
Again, not sure but close
 h       q   q.    e h.              q.    e e e e e e e e e e e e e e e q
|----------------------------------------------------------------------------|
|----------------------------------------------------------------------------|
|----------------------------------------------------------------------------|
|--------4---2-----0---------------------------------------------------------|
|2-----------------------------------0-----7-7-7-7-7-7-7-7-7-7-7-7-7-7-7-10\-|
|------------------------------------------7-7-7-7-7-7-7-7-7-7-7-7-7-7-7-10\-|

The chorus is played with the two bars of the intro done twice.

2nd Verse
Just to svae time, the second verse is the same as the first except that these two 
are swapped both times.
1st Ending
 q.    e e e e e e e  q.    e e e e e e e
|--------------------|--------------------|
|--------------------|--------------------|
|--------------------|--------------------|
|--------------------|--------------------|
|3-----3-3-3-2-2-2-2-|5-----5-5-5-8-8-8-8-|
|3-----3-3-3-2-2-2-2-|5-----5-5-5-8-8-8-8-|

Then play the pre chorus again

Then play the chorus

THEN play the first bar only of the first intro.

The solo happens with some simple rhythms at the beginning and then a tapping part that 
be improvised if you know the scales.

3rd chorus is a little bit different.
 e e e e e e e e e e e e e e e e e e e q    e q w
|---------------------------------------------------------------|
|---------------------------------------------------------------|
|--------------------------------7-7-7-7------5-----------------|
|--------------------------------7-7-7-7------5-----------------|
|2-2-2-2-2-2-2-2-2-2-2-2-2-2-2-2-5-5-5-5------3-----------------|
|2-2-2-2-2-2-2-2-2-2-2-2-2-2-2-2------------0-------------------|
                                            .
 e e e e e e e e e e e e e e e e e e e q    e q.  e e e e e e e
|---------------------------------------------------------------|
|---------------------------------------------------------------|
|---------------------------------------------------------------|
|---------------------------------------------------------------|
|2-2-2-2-2-2-2-2-2-2-2-2-2-2-5-5-7-7-7-7------5---5-5-5-5-5-5-5-|
|2-2-2-2-2-2-2-2-2-2-2-2-2-2-5-5-7-7-7-7----2-5---5-5-5-4-4-4-4-|

Play this times two total.             Key: .=Palm Mute
                                            / or \ = slide director
Ending                                      e=eight note
 q.    q.    q.    e e e e e e e q          q=quarter note
|----------------------------------|        q.=dotted quarter note
|----------------------------------|        h=half note
|----------------------------------|        h.=dotted half note
|----------------------------------|        w=whole note
|5-----5-----3-----3-3-3-3-3-3-3-0-|        ^=accented note
|5-----5-----3-----3-3-3-2-2-2-2-0-|
                   . . . . . . .

Well, that's it! PLEASE RATE AND/OR LEAVE A COMMENT!
Thanx.
comments
print report bad tab
10 comments total. Showing first comments.
+3 reply
Tboi 142 wrote on July 9 2007, 01:12 am

pretty good, keep working at it and soon enough, you'll find out how to pay the solo! I like it.

+1 reply
Tboi 142 wrote on July 9 2007, 01:12 am

BTW, please rate mine :)

0 reply
mattalmighty 53 wrote on August 29 2007, 12:30 pm

doesnt Gus G play in D Standard?

Gr8 otherwise, keep up the good work!

I want to post or [tab]
guest
You may want to rate the tab now too:
select rating
Please do not post tabs as comments. Select "correction" instead!